Home » S » Skid Row »

Skid Row - Big Guns Bass

Artists:  A B C D E F G H I J K L M N O P Q R S T U V W X Y Z # 

Big Guns Bass

(ver. 1) Click to play this song!
Skid Row
Album:Skid Row
Bassist:Rachel Bolan

This is such an awesome song. It's very fun to play on bass. It totally rocks.

Key:
x = times a number
* = let it ring
/ = slide up
b = bend

Intro
G:----|----------------|
D:----|----------------|
A:----|--------------3*|
E:3*-3|0-1-2-3x56-1*---|

Verse 1
G:----------|----------|
D:----------|----------|
A:--------3*|-----3*-5*|
E:3x56-1*---|5x48------|

Chorus 1
G:----------|----------------------|----------|-------|
D:----------|----------------------|----------|-------|
A:----3-3---|--------5*-5-3---3----|----3-3---|-----5*|
E:5-5-----3*|5-5-3-3--------5---5-3|5-5-----3*|5--3---|

After Chorus
G:----------|
D:----------|
A:--------5*|
E:5x24-3*---|

Verse 2
G:-------------------------------|
D:-------------------------------|
A:-----3*-5--5-3--3-2--2-0--0----|
E:5x40------------------------3-2|

Chorus 2
G:----------|----------------------|----------|----------------------|
D:----------|----------------------|----------|----------------------|
A:----3-3---|--------5*-5-3---3----|----3-3---|--------5*-5-3---3----|
E:5-5-----3*|5-5-3-3--------5---5-3|5-5-----3*|5-5-3-3--------5---5-3|

G:----------|----------------------|----------|--------|
D:----------|----------------------|----------|--------|
A:----3-3---|--------5*-5-3---3----|----3-3---|------5*|
E:5-5-----3*|5-5-3-3--------5---5-3|5-5-----3*|5*-3*---|

Solo
G:-------------------|-------------------|-------------------|------|
D:-------------------|-------------------|-------------------|------|
A:-------------------|-------------------|-------------------|------|
E:5--7--55-7-55-7-5-7|3--5--33-5-33-5-3-5|5--7--55-7-55-7-5-7|5x13-7|

Bridge
G:-----|---------------------------|
D:-----|---------------------------|
A:3*---|-----------------3*--------|
E:---3*|55-3-5--55-3-5-7----3*-7x16|

G:--------|--------|--------|--------|
D:--------|--------|--------|--------|
A:---3*---|------5*|---3*---|------5*|
E:5*----3*|5*-3*---|5*----3*|5--3----|

Chorus 2

G:--------------------------------------|--------|
D:7bx32/19-19-19-19-19-17---------------|--------|
A:------------------------19-17---------|------5*|
E:------------------------------19-17-15|5*-3*---|

End
G:-----------|------------|-------------|
D:-----------|------------|-------------|
A:5-3---3----|------------|------3------|
E:----5---5-3|5555-5555-5*|5-3-3---3-3-5|

That's it. Totally rockin tune. I already put it in order for you. Any comments 
            
Submit corrections

↑ Back to top | Tablatures and chords for acoustic guitar and electric guitar, ukulele, drums are parodies/interpretations of the original songs. You may use it for private study, scholarship, research or language learning purposes only