» » »

Skankin Pickle - Ties That Bind Tabs

Artists:  A B C D E F G H I J K L M N O P Q R S T U V W X Y Z # 

Ties That Bind Tabs

(ver. 1) Click to play this song!
Skankin Pickle
 Rating:
4/5 (4 votes)

 Ties That Bind lessons Tabs too difficult? Try these video lessons and learn fast
 
                #


Band: Skankin' Pickle
Written by Devlin

I did find one other version of this song on the net, and it's not bad,
but mine gives the order of the song, and has the lyrics, too. Still,
giving me a lot to work with.  Anyway, here it is:

Intro:
   A             D(dist.)A              E        A
E--5--5--5--5------------5--5--5--5--5-----------5---|
B--5--5--5--5------------5--5--5--5--5-----------5---|
G--6--6--6--6----7----7--6--6--6--6--6--9--9--9--6---|
D--7--7--7--7----7----7--7--7--7--7--7--9--9--9--7---|
A----------------5----5-----------------7--7--7------|
E----------------------------------------------------|


Verse:
   A   E   C#
E--5---4---4----------------|
B--5---5---6----------------|
G--6---4---6----------------|
D--7-------6----------------|   (Repeated)
A-------------5-4-----------|
E------------------7-5-7-5--|

Chorus: ("Don't ask me why my life's a wreck. . .")
   C#          D            A
E---------------------------5--5--5--5--5---|
B---------------------------5--5--5--5--5---|
G--6--6--6--6--7--7--7--7---6--6--6--6--6---|
D--6--6--6--6--7--7--7--7---7--7--7--7--7---|  *Played 2x
A--4--4--4--4--5--5--5--5-------------------|
E-------------------------------------------|

("And I've   Got  To  Get A - Way From Ties That Bind")
E--------------------------------------------|
B--------------------------------------------|
G--------------9---9---9---9----9---9----7---|
D--------------9---9---9---9----9---9----7---|  (Then Intro)
A--------------7---7---7---7----7---7----5---|
E--------------------------------------------|


[Lyrics]
(Verse):
Don't want your kind of work today. I hate that f**king job, anyway.
(Chorus):
Don't ask me why my life's a wreck.  I've got this noose around my neck.
And I've got to get away from ties that bind. Ties that bind.
(Verse):
Don't wanna come home to you tonight. Cause I'm a mess and I'll probably
start a fight.
(Repeat chorus)

And that's it!  Thanks again to Jay Graf for helping to get me started.
Skankin' Pickle is a great band, and this is one of their best songs
ever.  E-mail me with any questions, comments, etc. I hope you like the tab.

Luke
            
Submit corrections


        Ties That Bind lessons Hard to play? Try these video lessons and learn fast Ties That Bind lessons
        
↑ Back to top | Tablatures and chords for acoustic guitar and electric guitar, ukulele, drums are parodies/interpretations of the original songs. You may use it for private study, scholarship, research or language learning purposes only