» » »

Sisters Of Mercy - Adrenochrome Bass

Artists:  A B C D E F G H I J K L M N O P Q R S T U V W X Y Z # 

Adrenochrome Bass

(ver. 1) Click to play this song!
Sisters Of Mercy
 Rating:
4/5 (4 votes)
                
Riff:1
G|------------------------------------------------------------------
D|------------------------------------------------------------------
A|-2-2-2-2-2-2-2/9-9-9-9-9-9-9-12-12-12-12-12-12-12\7-7-7-7-7-7-7-7-
E|------------------------------------------------------------------


Riff 2:
G|------------------------------------------------------------------
D|------------------------------------------------------------------
A|-2-2-2-2-2-2-2/9-9-9-9-9-9-9-12-12-12-12-12-12-12\7-7-7-7-7-7-----
E|--------------------------------------------------------------9-9-


Riff 3:
G|------------------------------------------------------------------
D|------------------------------------------------------------------
A|------------------------------------------------------------------
E|-10-10-10-10-10-10-10\5-5-5-5-5-5-5/7-7-7-7-7-7-7-7-7-7-7-7-7/9-9-


Riff 4:

G|------------------------------------------------------------------
D|------------------------------------------------------------------
A|------------------------------------------------------------------
E|-10-10-10-10-10-10-10\5-5-5-5-5-5-5/7-7-7-7-7-7-7-7-7-7-7-7-7-7-7-


Riff 5:

G|-----------------------------------------------------------------
D|-----------------------------------------------------------------
A|-----------------------------------------------------------------
E|-7-7-7-7-7-7-7-7-5-5-5-5-5-5-5-5-3-3-3-3-3-3-3-3-2-2-2-2-2-2-2-2/


Riff 6:

G|-----------------------------------------------------------------
D|-----------------------------------------------------------------
A|-----------------------------------------------------------------
E|-7-7-7-7-7-7-7-7-5-5-5-5-5-5-5-5-3-3-3-3-3-3-3-3-2-2-2-2-2-2/9-9-
            
Submit corrections

↑ Back to top | Tablatures and chords for acoustic guitar and electric guitar, ukulele, drums are parodies/interpretations of the original songs. You may use it for private study, scholarship, research or language learning purposes only