» » »

Simpsons - Theme Tabs

Artists:  A B C D E F G H I J K L M N O P Q R S T U V W X Y Z # 

Theme Tabs

(ver. 1) Click to play this song!
Simpsons
 Rating:
4/5 (4 votes)

 Theme lessons Tabs too difficult? Try these video lessons and learn fast
 
                this is my first tab posted, please rate this.  If theres any mistakes,

e. -0-2-4-7-5-2---------------------
B. ------------3-0------------------
G. ---------------1-1-1-2-1-1-1-2-5-
D. ---------------------------------
A. ---------------------------------
E. ---------------------------------


e. -0-2-4-7-5-2------------------------------
B. ------------3-0-----------------3-3-3-3---
G. ---------------1-1-1-2-1-1-1-2-5----------
D. ------------------------------------------
A. ------------------------------------------
E. ------------------------------------------
            
Submit corrections


        Theme lessons Hard to play? Try these video lessons and learn fast Theme lessons
        
↑ Back to top | Tablatures and chords for acoustic guitar and electric guitar, ukulele, drums are parodies/interpretations of the original songs. You may use it for private study, scholarship, research or language learning purposes only