» » »

Simpsons - Homer In Space Tabs

Artists:  A B C D E F G H I J K L M N O P Q R S T U V W X Y Z # 

Homer In Space Tabs

(ver. 2) Click to play this song!
Simpsons
 Rating:
4/5 (4 votes)

 Homer In Space lessons Tabs too difficult? Try these video lessons and learn fast
 
                simpsons
Homer in space   (bule danube)

reformtted by Max McComb


e|------------10-10--7-7-------------10-10-8-8--------------12-12-------|
B|-----------------------------------------------------5-5--------13-13-|
G|-----4-7-7-----------------4-7-7-------------------2------------------|
D|-5-5-------------------5-5---------------------4-4--------------------|
A|----------------------------------------------------------------------|
E|----------------------------------------------------------------------|

e|------------12-12-----------------3---15-15----------------3---15-15--12-12-|
B|-------5-5--------12-12---------3-----------15-15--------3------------------|
G|-----2------------------------4------------------------4--------------------|
D|-4-4----------------------5-5----------------------5-5----------------------|
A|----------------------------------------------------------------------------|
E|----------------------------------------------------------------------------|

e|-------0-0------7-----------0-----------|
B|-----1-----2-3----5----0------3---------|
G|-2-2----------------4-----2-------0~~~~-|
D|----------------------------------------|
A|----------------------------------------|
E|----------------------------------------|
            
Submit corrections


        Homer In Space lessons Hard to play? Try these video lessons and learn fast Homer In Space lessons
        
↑ Back to top | Tablatures and chords for acoustic guitar and electric guitar, ukulele, drums are parodies/interpretations of the original songs. You may use it for private study, scholarship, research or language learning purposes only