» » »

Simple Plan - Ill Do Anything Tabs

Artists:  A B C D E F G H I J K L M N O P Q R S T U V W X Y Z # 

Ill Do Anything Tabs

(ver. 1) Click to play this song!
Simple Plan
 Rating:
4/5 (4 votes)

 Ill Do Anything lessons Tabs too difficult? Try these video lessons and learn fast
 
                Artist - Simple Plan
Song-I'd Do Anything 
By Dougie 

x = Palm Mute (rest palm against the strings at the bridge)

Intro

E|--------------------------------------------------------|
B|--------------------------------------------------------|
G|--------------------------------------------------------|
D|-----4-7-----6-9---------------------4-7----6-9---------|
A|--5-------7-------7---7-7-7-7-7-7--5------7-------------|
E|------------------5---5-5-5-5-5-5----------------5------|
                        x x x x x

This small intro is quite fast so gradually build up the speed.

Verse

E|-------------------------------------------------------|
B|-------------------------------------------------------|
G|-------------------------------------------------------|
D|-------7---6h7--------7------6h7-----4--4-7-4-6h7-4----|
A|-------------------------------------------------------|
E|--5-5----5-----5-4-4-----4--------4--------------------|
      x    x     x   x     x        x     x   x     x 

     
E|-------------------------------------------------------|
B|-------------------------------------------------------|
G|-------------------------------------------------------|
D|-----4--7-----6-9-------4--7------6--9-----7-----------|
A|--5--------7---------5--------7------------7-----------|
E|------------------5------------------------5-----------|


Pre Chorus

E|----------------------------------------------------------------------------|
B|----------------------------------------------------------------------------|
G|----------------------------------------------------------------------------|
D|---7---6h7----7------7----6h7----7------7-----6h7-----6--6-6--7---7--9--7---|
A|--------------7------------------5----5---5--------5--7--7-7--7------7--5---|
E|-7---7-----7--9---9----9------9---------------------------------------------|


Chorus

E|-------------------------------------------------------|
B|-------------------------------------------------------|
G|----------------------------------------7--7--7-7-7----|
D|-7--7---7-7-7--2-2--2-2-2--4-4---4-4-4--7--7--7-7-7----|
A|-7--5---7-7-7--2-2--2-2-2--4-4---4-4-4--5--5--5-5-5----|
E|-5--5---5-5-5--0-0--0-0-0--2-2---2-2-2-----------------|      x2

Then.........

E|-------------------------|
B|-------------------------|
G|-------------------------|
D|-----4-7-----6-9---------|
A|--5-------7--------------|
E|------------------5------|

Good Song.Enjoy! please RATE!
            
Submit corrections


        Ill Do Anything lessons Hard to play? Try these video lessons and learn fast Ill Do Anything lessons
        
↑ Back to top | Tablatures and chords for acoustic guitar and electric guitar, ukulele, drums are parodies/interpretations of the original songs. You may use it for private study, scholarship, research or language learning purposes only