Home » S » Simple Minds »

Simple Minds - Stars Will Lead The Way Bass

Artists:  A B C D E F G H I J K L M N O P Q R S T U V W X Y Z # 

Stars Will Lead The Way Bass

(ver. 1) Click to play this song!
Simple Minds
[Intro]         0:00 → 0:18
G|----------------------------------------------------------------------------------------------------|
D|----------------------------------------------------------------------------------------------------|
A|----------------------------------------------------------------------------------------------------|
E|-------------------------8-------10-7---------------------------------------------------------------|x2
B|-10---8-10-8-10-----8-10--------------8---6-8-6-8---8-5-7-----3-------------------------------------|
 
[Verse]         0:18 → 0:36 «I'm the one who broke apart...»
G|----------------------------------------------------------------------------------------------------|
D|----------------------------------------------------------------------------------------------------|
A|----------------------------------------------------------------------------------------------------|
E|---------------8---------------------8----------------------8--------------------------10-10-10-10--|
B|-10-------8-10---------10-------8-10---------10-------8-10---------8-8-------8-5-7------------------|
 
[Chorus]        0:36 → 0:53 «Stars will lead the way...»
G|----------------------------------------------------------------------------------------------------|
D|----------------------------------------------------------------------------------------------------|
A|----------------------------------------------------------------------------------------------------|
E|-------------------------8-------10-7---------------------------------------------------------------|x2
B|-10---8-10-8-10-----8-10--------------8---6-8-6-8---8-5-7-----3-------------------------------------|
 
[Verse]         0:53 → 1:11 «I'm the one who lost the sense...»
G|----------------------------------------------------------------------------------------------------|
D|----------------------------------------------------------------------------------------------------|
A|----------------------------------------------------------------------------------------------------|
E|---------------8---------------------8----------------------8--------------------------10-10-10-10--|
B|-10-------8-10---------10-------8-10---------10-------8-10---------8-8-------8-5-7------------------|
 
[Chorus]        1:11 → 1:36 «Stars will lead the way...»
G|----------------------------------------------------------------------------------------------------|
D|----------------------------------------------------------------------------------------------------|
A|----------------------------------------------------------------------------------------------------|
E|-------------------------8-------10-7---------------------------------------------------------------|x3
B|-10---8-10-8-10-----8-10--------------8---6-8-6-8---8-5-7-----3-------------------------------------|
 
[Interlude]     1:36 → 2:16                                     (1:50)       (1:54)         (1:58)
G|----------------------------------------------------------------------------------------------------|
D|----------------------------------------------------------------------------------------------------|
A|------------------------------------------------------12~-------\-----------12-\-----------12-\-----|
E|-10-10-----10-10-10-------8-10-----10-8-10----------------------------------------------------------|
B|-----------------------------------------------3/15\7-----------------------------------------------|
 
   (2:11)
G|----------------------------------------------------------------------------------------------------|
D|----------------------------------------------------------------------------------------------------|
A|----------------------------------------------------------------------------------------------------|
E|----------------------------------------------------------------------------------------------------|
B|-5~-------------------------------------------------------------------------------------------------|
 
[Outro]         2:16 → 3:17 «Stars will lead the way...»
G|----------------------------------------------------------------------------------------------------|
D|----------------------------------------------------------------------------------------------------|
A|----------------------------------------------------------------------------------------------------|
E|-------------------------8-------10-7---------------------------------------------------------------|x6
B|-10---8-10-8-10-----8-10--------------8---6-8-6-8---8-5-7-----3-------------------------------------|
 
G|----------------------------------------------------------------------------------------------------|
D|----------------------------------------------------------------------------------------------------|
A|----------------------------------------------------------------------------------------------------|
E|-------------------------8-------10-7----------------------------------5~---------------------------|
B|-10---8-10-8-10-----8-10--------------8---6-8-6-8---8-5-7-----3--3--3-------------------------------|
            
Submit corrections

↑ Back to top | Tablatures and chords for acoustic guitar and electric guitar, ukulele, drums are parodies/interpretations of the original songs. You may use it for private study, scholarship, research or language learning purposes only