Home » S » Simple Minds »

Simple Minds - Don't You (Forget About Me) Bass

Artists:  A B C D E F G H I J K L M N O P Q R S T U V W X Y Z # 

Don't You (Forget About Me) Bass

(ver. 1) Click to play this song!
Simple Minds
 Rating:
4/5 (4 votes)
                Don't You (Forget About Me) by Simple Minds

standard tuning

  Intro                          x2
G|--------|---|--------|--------|
D|--------|-R-|---5----|--------|
A|5--7----|---|5-------|3--5----|
E|--------|---|--------|--------|

  Verse                                                               x4

G|----------------|----------------|----------------|----------------|
D|----------------|----------------|----------------|----------------|
A|7-777-777-777-77|5-555-555-555-55|----------------|5-555-555-555-55|
E|----------------|----------------|5-555-555-555-55|----------------|

  Chorus
G|----------------|----------------|----------------|----------------|
D|----------------|----------------|----------------|----------------|
A|7-777-777-777-77|5-555-555-555-55|----------------|5-555-555-555-55|
E|----------------|----------------|5-555-555-555-55|----------------|

G|----------------|----------------|----------------|----------------|
D|----------------|----------------|----------------|----------------|
A|7-777-777-777-77|5-555-555-555-55|----------------|----------------|
E|----------------|----------------|5-555-555-555-55|5-555-555-557-77|

Bridge (I suggest you just play to the rhythm here)
G|----------------|----------------|----------------|----------------|
D|----------------|----------------|----------------|----------------|
A|3----3----3----3|3-------3-------|----------------|----------------|
E|----------------|----------------|33-----3------3-|33----3-----3---|

                                                     1.               2.
G|----------------|----------------|----------------|----------------|----------------|
D|----------------|----------------|----------------|----------------|----------------|
A|5----5----55----|5----5----55----|----------------|----------------|----------------|
E|----------------|----------------|5------5--------|5-----4-5-6-7---|5----5----------|
            
Submit corrections

↑ Back to top | Tablatures and chords for acoustic guitar and electric guitar, ukulele, drums are parodies/interpretations of the original songs. You may use it for private study, scholarship, research or language learning purposes only