» » »

Simon And Garfunkel - Song For The Asking Chords

Artists:  A B C D E F G H I J K L M N O P Q R S T U V W X Y Z # 

Song For The Asking Chords

(ver. 3) Click to play this song!
Simon And Garfunkel
 Rating:
4.4/5 (14 votes)

 Song For The Asking lessons Tabs too difficult? Try these video lessons and learn fast
 
                Main Riff]     (F)
e|1------------------------------------------------|
B|2-----1----------5-----3----------4/5-------4b---|
G|3---------2--------------0--------0--- or --0----|
D|4-------3----3/5---5\3-----0---------------------|
A|5---3------------------------3-------------------|
E|6------------------------------------------------|

[Riff 2] The more dramatic the better
     (C)              (Am)
e|1--0-------------------0--0--|
B|2--1-------------------1--1--|
G|3--0-------------------2--2--|
D|4--2-------------------2--2--|
A|5--3--3p--2p--1p--0--0-------|
E|6----------------------------|

[Verse]
C            G     F      Am
Here is my song for the asking
 Dm7               E
Ask me and I will play
 Em7      F       C           F
So sweetly, I'll make you smile

[Main Riff]
     (F)
e|1------------------------------------------------|
B|2-----1----------5-----3----------4/5-------4b---|
G|3---------2--------------0--------0--- or --0----|
D|4-------3----3/5---5\3-----0---------------------|
A|5---3------------------------3-------------------|
E|6------------------------------------------------|

 C           G    F        Am
This is my tune for the taking
 Dm7                  E
Take it, don't turn away
 Em7        F       C       F
I've been waiting all my life

[Main Riff]
     (F)
e|1-------------------------------------    -------|
B|2-----1----------5-----3----------4/5-    --4b---|
G|3---------2--------------0--------0--- or --0----|
D|4-------3----3/5---5\3-----0---------------------|
A|5---3------------------------3-------------------|
E|6------------------------------------------------|

[Riff 2] The more dramatic the better
     (C)              (Am)
e|1--0-------------------0--0--|
B|2--1-------------------1--1--|
G|3--0-------------------2--2--|
D|4--2-------------------2--2--|
A|5--3--3p--2p--1p--0--0-------|
E|6----------------------------|

 Am                Em
Thinking it over, I've been sad
 Bb                    F           G7
Thinking it over, I'd be more than glad
    C        C/B Am   F       Am
To change my ways    for the asking
  Dm7               E
Ask me and I will play
 Em7        F       C        F
All the love that I hold inside

[Main Riff]
     (F)
e|1-------------------------------------    -------|
B|2-----1----------5-----3----------4/5-    --4b---|
G|3---------2--------------0--------0--- or --0----|
D|4-------3----3/5---5\3-----0---------------------|
A|5---3------------------------3-------------------|
E|6------------------------------------------------|            
Submit corrections


        Song For The Asking lessons Hard to play? Try these video lessons and learn fast Song For The Asking lessons
        
↑ Back to top | Tablatures and chords for acoustic guitar and electric guitar, ukulele, drums are parodies/interpretations of the original songs. You may use it for private study, scholarship, research or language learning purposes only