Home » S » Simon And Garfunkel »

Simon And Garfunkel - Flowers Never Bend With The Rainfall Chords

Artists:  A B C D E F G H I J K L M N O P Q R S T U V W X Y Z # 

Flowers Never Bend With The Rainfall Chords

(ver. 1) Click to play this song!
Simon And Garfunkel
[Intro]
 
A|-----------------------------------|-------0-----------3---------3-----|
E|-------1-----------1-----------1---|-------------------------0-------0-|
C|---0-----------0-----------0-------|---------------0-------0---0---0---|
G|-----------0-----------0-----------|---0-------0-----------------------|
 
 |---1---&---2---&---3---&---4---&---|---1---&---2---&---3---&---4---&---|
 
                 Through the...
A|---3---------3---------------------|-----------------------------------|
E|---------0-------0-----------------|-----------------------------------|
C|-------0---0---0-------------------|-----------------------------------|
G|-----------------------------------|-----------------------------------|
 
 |---1---&---2---&---3---&---4---&---|---1---&---2---&---3---&---4---&---|
 
 
[Verse]
            C             Em
Through the corridors of sleep
         F                 C
Past the shadows dark and deep
   Em               F          C
My mind dances and leaps in confusion.
       C             Em
I dont know what is real,
        F             C
I can't touch what I feel
       Em               F             C
And I hide behind the shield of my illusion.
 
 
[Chorus]
G       F               C            Am
So I'll continue to continue to pretend
   Dm               Am
My life will never end,
    D             F
And flowers never bend
 
With the...
 
  ...rainfall.                                       The mirror...
A|-----------------------------------|-------0---------------------------|
E|-------1-----------1-----------1---|-----------------------------------|
C|---0-----------0-----------0-------|---------------0-------------------|
G|-----------0-----------0-----------|---0-------0-----------------------|
 
 |---1---&---2---&---3---&---4---&---|---1---&---2---&---3---&---4---&---|
 
 
[Verse] (not played in the episode)
    C            Em
The mirror on my wall
         F              C
Casts an image dark and small
    Em              F           C
But I'm not sure at all it's my reflection.
     C              Em
I am blinded by the light
   F                 C
Of God and truth and right
       Em           F             C
And I wander in the night without direction.
 
 
[Chorus]
G       F               C            Am
So I'll continue to continue to pretend
   Dm               Am
My life will never end,
    D             F
And flowers never bend
 
With the...
 
  ...rainfall.                                       No matter...
A|-----------------------------------|-------0---------------------------|
E|-------1-----------1-----------1---|-----------------------------------|
C|---0-----------0-----------0-------|---------------0-------------------|
G|-----------0-----------0-----------|---0-------0-----------------------|
 
 |---1---&---2---&---3---&---4---&---|---1---&---2---&---3---&---4---&---|
 
 
[Verse]
   C                Em
No matter if youre born
   F                 C
To play the king or pawn
        Em              F                   C
For the line is thinly drawn tween joy and sorrow,
C          Em
So my fantasy
F            C
Becomes reality
           Em             F             C
And I must be what I must be and face tomorrow.
 
 
[Chorus]
G       F               C            Am
So I'll continue to continue to pretend
   Dm               Am
My life will never end,
    D             F
And flowers never bend
 
With the...
 
 
[Outro]
 
  ...rainfall.
A|-----------------------------------|-------0---------------------------|
E|-------1-----------1-----------1---|-----------------------1-----------|
C|---0-----------0-----------0-------|---------------0---0-----------0---|
G|-----------0-----------0-----------|---0-------0---------------0-------|
 
 |---1---&---2---&---3---&---4---&---|---1---&---2---&---3---&---4---&---|
 
                 ...slow tempo...        Fm
A|-----------------------0-----------|---3-------------------------------|
E|---1-----------1-------------------|---1-------------------------------|
C|-----------0-------------------0---|-----------------------------------|
G|-------0-----------0-------0-------|---1-------------------------------|
 
 |---1---&---2---&---3---&---4---&---|---1---&---2---&---3---&---4---&---|
            
Submit corrections

↑ Back to top | Tablatures and chords for acoustic guitar and electric guitar, ukulele, drums are parodies/interpretations of the original songs. You may use it for private study, scholarship, research or language learning purposes only