» » »

Siddhartha - Ser Parte Tabs

Artists:  A B C D E F G H I J K L M N O P Q R S T U V W X Y Z # 

Ser Parte Tabs

(ver. 1) Click to play this song!
Siddhartha
 Rating:
4.4/5 (5 votes)


 Ser Parte  lessons Tabs too difficult? Try these video lessons and learn fast
 
                [Intro]
e|--------------------------------------------------------------|
b|-------12-------9-------12-12/14-12--------9-9h10-9-----------|
g|--8h9-------------8h9------------------------------9----------|
D|----------9h11-----------------------9h11-----------11--------|  
A|--------------------------------------------------------------|
E|--------------------------------------------------------------|

[Bridge 1]
e|---------------------|-----------------------------------------|
b|--------9------------|-------9-10-9----------------------------|
g|------9---9-----x3---|-----9-----------------------------------|
D|---11-------11-------|--11-------------------------------------|  
A|---------------------|-----------------------------------------|
E|---------------------|-----------------------------------------|

[Chorus]
e|----------------------9---------------------------------------|
b|--5---------7---------9---------------------------------------|
g|--6---------8---------9---------------------------------------|
D|--7---------9---------9---------------------------------------|  
A|--------------------------------------------------------------|
E|--------------------------------------------------------------|

[Solo]
e|--------------------------------------------------------------|
b|--------------------------------------------------------------|
g|--13---13-14--13---13-14-13----13-14—14/16-14-----------------|
D|-----11---------11----------11--------------------------------|  
A|--------------------------------------------------------------|
E|--------------------------------------------------------------|

e|--------------------------------------------------------------|
b|--------------------------------------------------------------|
g|--13---13-14---13----13-14-13---13-14-------------------------|
D|-----11-----------11----------11------14-13-------------------|  
A|--------------------------------------------------------------|
E|--------------------------------------------------------------|

[Bridge 2]
e|--------------------------------------------------------------|
b|--------------------------------------------------------------|
g|--------------------------------------------------------------|
D|--------------------------------7--6--------------------------|  
A|--11--7--------4—4/7----11--7--------7------------------------|
E|--------9----7----------------9-------------------------------|

[Chorus]
e|----------------------9---------------------------------------|
b|--5---------7---------9---------------------------------------|
g|--6---------8---------9---------------------------------------|
D|--7---------9---------9---------------------------------------|  
A|--------------------------------------------------------------|
E|--------------------------------------------------------------|

[Final Riff]
e|----------------------------|----------------------------------|
b|--5-5-5--55-5-5/7-7-7-77-77-|-12--12--12--12-10-9—-------------|
g|--6-6-6--66-6-6/8-8-8-88-88-|--9---9---9---9--9-9—--x2---------|x6
D|----------------------------|----------------------------------|  
A|----------------------------|----------------------------------|
E|----------------------------|----------------------------------|            
Submit corrections



        Ser Parte  lessons Hard to play? Try these video lessons and learn fast Ser Parte  lessons
        
↑ Back to top | Tablatures and chords for acoustic guitar and electric guitar, ukulele, drums are parodies/interpretations of the original songs. You may use it for private study, scholarship, research or language learning purposes only