Home » S » Sick Of It All »

Sick Of It All - Laughinstock Tabs

Artists:  A B C D E F G H I J K L M N O P Q R S T U V W X Y Z # 

Laughinstock Tabs

(ver. 1) Click to play this song!
Sick Of It All
Band: Sick Of It All

Intro(bass)
--------------------------------------------------------------------------|
--------------------------------------------------------------------------|
--------------------------------------------------------------------------|
--------------------------------------------------------------------------|
--------------------------------------------------------------------------|
-0-0-0-0-0-0-0-0-0-0-0-0-999-555---3-3-3-3-3-3-3-3-3-3-3-3-3-666-333------|
Verse: play 4X(3th and 4th time without palm muting, also known as
PM)                
---------------------------------------------------------------------------|
---------------------------------------------------------------------------|
---------------------------------------------------------------------------|
---------------------------------------------------------------------------| 
-2-2-2-2-2-2-2-2-2-2-2-2--11-11-11-777---5-5-5-5-5-5-5-5-5-5-5-5-5-888-555-|
-0-0-0-0-0-0-0-0-0-0-0-0--9--9--9--555---3-3-3-3-3-3-3-3-3-3-3-3-3-666-333-|
PM______________________               pm_________________________

KICK ASS TEMPO CHANCE !!!!!!!!
riff 1
---------------------------|
---------------------------|
-9x-9x-9x-XX-8x-8x-8x-xx---|
-9x-9x-9x-XX-8x-8x-8x-xx---| 2X
-7x-7x-7x-XX-6x-6x-6x-xx---|
---------------------------|
riff 2
--------------------|
--------------------|
--------------------| 2X
-5x-4-4-4-4-4-5-----|
-5x-4-4-4-4-4-5-----|
-3x-2-2-2-2-2-3-----|

play riff 1 and 2 2X and then

---------------|
---------------|
---------------|
---------------|
---------------|
---5--5--5--5--|
  ^^^^^^^^^^^^
  nat. harmonic

Interlude
----------------------|
----------------------|
-5-5-xx-7-7-xx--------|
-5-5-xx-7-7-xx-7--777-| 2X
-3-3-xx-5-5-xx-7--777-|
---------------5--555-|

------------------------|
------------------------|
-5-5-xx-4-4-xx-5--2-----|
-5-5-xx-4-4-xx-5--2-2-5-| 
-3-3-xx-2-2-xx-3--0-2-5-|
--------------------0-3-|

----------------------------------|
----------------------------------|
-55-xx-55-xx-55-xx-5-5-5-5-5-5----|
-55-xx-55-xx-55-xx-5-5-5-5-5-5----| 
-33-xx-33-xx-33-xx-3-3-3-3-3-3----|
----------------------------------|

repeat everything from Kick ass tempo chance to interlude
OUTRO
-------------------|
-------------------|
-10/9-x9-x9-99-10--| 3X
-10/9-x9-x9-99-10--|
-8-/7-x7-x7-77-8---|
-------------------|

-------------------|
-------------------|
-------------------|
-5/4-x4-x4-44-5----|
-5/4-x4-x4-44-5----|
-3/2-x2-x2-22-3----|

Repeat 
end with
LAUGHINGSTOCK !!!!!! 
-------------------|
-------------------|
-10/9-x9-x9-99-9---|
-10/9-x9-x9-99-9---|
-8-/7-x7-x7-77-7---|
-------------------|

LAUGHINGSTOCK !!!!!! 
-------------------|
-------------------|
-10/9-x9-x9-99-9---|
-10/9-x9-x9-99-9---|
-8-/7-x7-x7-77-7---|
-------------------|

LAUGHINGSTOCK !!!!!! 
-------------------|
-------------------|
-10/9-x9-x9-99-9---|
-10/9-x9-x9-99-9---|
-8-/7-x7-x7-77-7---|
-------------------|
            
Submit corrections

↑ Back to top | Tablatures and chords for acoustic guitar and electric guitar, ukulele, drums are parodies/interpretations of the original songs. You may use it for private study, scholarship, research or language learning purposes only