Home » S » Sick Of It All »

Sick Of It All - Consume Tabs

Artists:  A B C D E F G H I J K L M N O P Q R S T U V W X Y Z # 

Consume Tabs

(ver. 1) Click to play this song!
Sick Of It All


   Band:    Sick of it all

   Im tabbing this song because there are no sick of it all tabs
   on olga so this shall be the first

   Dropped-D tuning

       Verse
   e---------------------------------------------|
   b---------------------------------------------|
   g---------------------------------------------|
   d-0-0--0-0--0-1-1--1-3-3--3-4-4-4--4-3--------|
   a-0-0--0-0--0-1-1--1-3-3--3-4-4-4--4-3--------|
   D-0-0--0-0--0-1-1--1-3-3--3-4-4-4--4-3--------|

   before the pre-chorus the are 4 open D chords


       Pre-chorus
   e---------------------------------------------|
   b---------------------------------------------|
   g--2-2--2-4-4--4-5-5-5---2-2--2-4-4--4-5-5----|
   d--0-0--0-2-2--2-3-3-3---0-0--0-2-2--2-3-3----|
   a--0-0--0-2-2--2-3-3-3---0-0--0-2-2--2-3-3----|
   D--0-0--0-2-2--2-3-3-3---0-0--0-2-2--2-3-3----|

      Chorus
   e----x2--------------------------------------|
   b--------------------------------------------|
   g---------7-7-7-7-7-------------4-4-4-4-4----|
   d-5-5-5-5-5-5-5-5-5-----2-2-2-2-2-2-2-2-2----|
   a-5-5-5-5---------------2-2-2-2--------------|
   D-5-5-5-5---------------2-2-2-2--------------|

   i havent tabbed it out in the correct rythm so you will
   have to listen to the song.on the Chorus i dont think i
   put the right amount of notes because i tabbed this off
   the top of my head but they are the right
   ones. the bridge part i didnt tab out because its almost
   the same as the prechorus.thats all enjoy! if you have
   questions about this tab e-mail me.
            
Submit corrections

↑ Back to top | Tablatures and chords for acoustic guitar and electric guitar, ukulele, drums are parodies/interpretations of the original songs. You may use it for private study, scholarship, research or language learning purposes only