Home » S » Shwayze »

Shwayze - Corona And Lime Bass

Artists:  A B C D E F G H I J K L M N O P Q R S T U V W X Y Z # 

Corona And Lime Bass

(ver. 1) Click to play this song!
Shwayze

Tuning: Standard

This song is extremely easy. The whole song is pretty much the same.

Intro:
(First notes follow the drum) 5 secs into
G|--------------------------------------------------------------------------|
D|--------------------------------------------------------------------------|
A|--------------------------------------------------------------------------|
E|---3-3-3-3----------------------------------------------------------------|

Intro:
Baby will you be my…
G|---------------------------------------------------------------------------|
D|---------------------------------------------------------------------------|
A|--3-33-3---5-5-5-----------------------------------------------------------|
E|---------------------3-33-3--5-5-5--------------(x3)-----------------------|
(The last time only play till the first set of 5’s.)

Verse 1:
Yo. Lil girls in the city. Dress up pretty.
G|---------------------------------------------------------------------------|
D|---------------------------------------------------------------------------|
A|---3-33-3---5-5-5----------------------------------------------------------|
E|----------------------3-33-3----5-5-5---------------(x8)-------------------|

Chorus:
Baby will you be my…
G|--------------------------------------------------------------------------|
D|--------------------------------------------------------------------------|
A|--3-33-3---5-5-5----------------------------------------------------------|
E|---------------------3-33-3---5-5-5---------(x4)--------------------------|

Verse 2:
Girls in New York look like giraffes…
G|--------------------------------------------------------------------------|
D|--------------------------------------------------------------------------|
A|--3-33-3---5-5-5----------------------------------------------------------|
E|---------------------3-33-3---5-5-5-------------(x6)----------------------|

Chorus:
Baby will you be my…
G|--------------------------------------------------------------------------|
D|--------------------------------------------------------------------------|
A|--3-33-3---5-5-5----------------------------------------------------------|
E|---------------------3-33-3---5-5-5-------------(x6)----------------------|

Verse 3:
Now if your lookin for love…
G|--------------------------------------------------------------------------|
D|--------------------------------------------------------------------------|
A|-----------------------NO BASS--------------------------------------------|
E|--------------------------------------------------------------------------|

Verse 3:
Bass starts at Let me tell ya about a girl I know…
G|--------------------------------------------------------------------------|
D|--------------------------------------------------------------------------|
A|--3-33-3---5-5-5----------------------------------------------------------|
E|-------------------3-33-3---5-5-5-------------------(x4)------------------|

Chorus:
Baby will you be my…
G|-----------------------------------|
D|-----------------------------------|
A|--3-33-3---5-5-5-------------------|
E|-------------------3-33-3---5-5-5--|(About 9 times till fade out)

you think I did.


LEGEND AND NOTES:
h: Hammer-on            p: Pull-off         b: Bend string up
r: Unbend string        /: Slide up         \: Slide down
: Harmonics       x: Muted string     v: Vibrato
t: Tap
            
Submit corrections

↑ Back to top | Tablatures and chords for acoustic guitar and electric guitar, ukulele, drums are parodies/interpretations of the original songs. You may use it for private study, scholarship, research or language learning purposes only