Home » S » Shooter Jennings »

Shooter Jennings - Daddy's Farm Tabs

Artists:  A B C D E F G H I J K L M N O P Q R S T U V W X Y Z # 

Daddy's Farm Tabs

(ver. 2) Click to play this song!
Shooter Jennings
Shooter Jennings
Daddy's Farm

Intro Riff:
E----------------------------------------------------------
B----------------------------------------------------------
G---------------------------------0-2b2-0-2-0--------------
D--22--0-2-------0-1-2--22--0-2-0--------------------------
A--22------0-1-2--------22---------------------------------
E--00-------------------00---------------------------------

Verse Riff
E------------------------------------
B------------------------------------
G------------------------------------
D--22-xxxxxxxxxxxx--22-xxxxxxxxxxxx--  x2
A--22-xxxxxxxxxxxx--22-xxxxxxxxxxxx--
E--00-xxxxxxxxxxxx--00-xxxxxxxxxxxx--

Chorus Riff
E------------------------------------------------------
B-------------3----------------------------------------
G-----------2-0---------------0-2b2-0-2-0--------------
D-----------2-0-----22--0-2-0--------------------------
A--------0--0-2-----22---------------------------------
E--0-0-3------3-----00---------------------------------

E------------------------------------------------------
B--3---------------------------------------------------
G--0-2----------------------------------0-2b2-0-2-0----
D--0-2---22--0-2-------0-1-2--22--0-2-0----------------
A--2-0---22------0-1-2--------22-----------------------
E--3-----00-------------------00-----------------------
            
Submit corrections

↑ Back to top | Tablatures and chords for acoustic guitar and electric guitar, ukulele, drums are parodies/interpretations of the original songs. You may use it for private study, scholarship, research or language learning purposes only