» » »

Shirley Bassey - Diamonds Are Forever Chords

Artists:  A B C D E F G H I J K L M N O P Q R S T U V W X Y Z # 

Diamonds Are Forever Chords

(ver. 2) Click to play this song!
Shirley Bassey
 Rating:
4.3/5 (22 votes)

 Diamonds Are Forever  lessons Tabs too difficult? Try these video lessons and learn fast
 
                [Intro]

    Am      Asus2   Am            Asus2 Am
e |----0---------------|----0---------------|
B |------1----0---0-1--|------1----0---0-1--|
G |--2-----2----2------|--2-----2----2------|
D |--------------------|--------------------|
A |--------------------|--------------------|
E |--------------------|--------------------|

    Dm7      Dm6    Dm7          Dm6    Dm7
e |----1---------------|----1---------------|
B |------1----0---0-1--|------1----0---0-1--|
G |--2-----2----2------|--2-----2----2------|
D |--------------------|--------------------|
A |--------------------|--------------------|
E |--------------------|--------------------|


[Verse 1]
   Am              Asus2    Am   Asus2
Diamonds are for - ever,
         Dm7            Dm6        Dm7  Dm6
They are all I need to please me,
          G7sus4         G7       G7sus4  G7
They can stimulate and tease me,
            Dm7         Dm7/C
They won't leave in the night,
       Bbmaj7                        Bbmaj7   Bbmaj7  G
I've no fear that they might ...de - sert me! 
          ^    ^    ^    ^             ^       ^^^  ^ ^

[Verse 2]
   Am              Asus2    Am   Asus2
Diamonds are for - ever,
         Dm7               Dm6        Dm7  Dm6
Hold one up, and then ca - ress it,
          G7sus4                G7      G7sus4  G7
Touch it, stroke it, and un - dress it,
      Dm7       Dm7/C
I can see every part,
       Bbmaj7                   Bbmaj7    Bbmaj7   G
Nothing hides in the heart to ...hurt me!
         ^    ^    ^    ^          ^        ^^^  ^ ^

[Verse 3]
             Em7                           Am7
I don't need love, for what good will love do me?
Dm7                   Bbmaj7
    Diamonds never lie to me,
                 E7                  G#dim
For when love's gone, they'll luster on---------!

    G#dim
e |--4--------------|
B |--6--------------|
G |--4--------------|
D |--6--------------|
A |--5-----2--------|
E |--4--------0--4--|


[Verse 4]
   Am                            Dm7
Diamonds are forever, sparkling round my little finger,
       G7
Unlike men, the diamonds linger,
        Dm7
Men are mere mortals,
Dm7/C       Bbmaj7                   Bbmaj7    Bbmaj7  G
 Who are not worth go -ing to ...your grave for!
              ^    ^   ^   ^           ^         ^^^  ^ ^

[Verse 5]
             Em7                           Am7
I don't need love, for what good will love do me?
Dm7                      Bbmaj7
      Diamonds never lie to me,
                 E7                  G#dim
For when love's gone, they'll luster on---------!

    G#dim
e |--4--------------|
B |--6--------------|
G |--4--------------|
D |--6--------------|
A |--5-----2--------|
E |--4--------0--4--|


[Coda]
   Am              Asus2        Am         Asus2
Diamonds are for - ever, for - ever, for - ever,
  Dm7              Dm6          Dm7        Dm6
Diamonds are for - ever, for - ever, for - ever,
       Bbmaj7
For  - ever---------,
     Am  Asus2    Am  Asus2    Am  Asus2    Am
And ever--------------------------------!            
Submit corrections


        Diamonds Are Forever  lessons Hard to play? Try these video lessons and learn fast Diamonds Are Forever  lessons
        
↑ Back to top | Tablatures and chords for acoustic guitar and electric guitar, ukulele, drums are parodies/interpretations of the original songs. You may use it for private study, scholarship, research or language learning purposes only