Home » S » Shiny Toy Guns »

Shiny Toy Guns - Turned To Real Life Tabs

Artists:  A B C D E F G H I J K L M N O P Q R S T U V W X Y Z # 

Turned To Real Life Tabs

(ver. 1) Click to play this song!
Shiny Toy Guns
Turned to Real Life
Shiny Toy Guns
Season of Poison (2008)

Intro (0:00 - 0:21)
Instrumental

Verse x1 (0:21 - 0:36)
e-------------------------------------------------------------------------------|
B-------------------------------------------------------------------------------|
G-------------------------------------------------------------------------------|
D-------------------------------------------------------------------------------|
A-------------------------------------------------------------------------------|
E---7-7-7-7-7-7-7-7-7-7-7-7-7-7-7-7\0-0-0-0-0-0-0-0-0-0-0-0-0-0-0-0/7-7-7-7-7-7-|

e-----------------------------------------------------------------------------|
B-----------------------------------------------------------------------------|
G-----------------------------------------------------------------------------|
D-----------------------------------------------------------------------------|
A-----------------------------------------------------------------------------|
E---7-7-7-7-7-7-7-7-7-7\0-0-0-0-0-0-0-0-0-0-0-0-0-0-0-0-----------------------|

Chorus x1 (0:36 - 0:50)
e-----------------------------------------------------------------------------|
B-----------------------------------------------------------------------------|
G---9-9-8------9~8~-----------------------------------------------------------|
D--------9~9-9----9~9-9-------------------------------------------------------|
A-----------------------9-9h11p9h11~11-11-11-11p9-9-9~9-9-9-------------------|
E-----------------------------------------------------------------------------|

e-----------------------------------------------------------------------------|
B-----------------------------------------------------------------------------|
G---9-9-8------9~8~-----------------------------------------------------------|
D--------9~9-9----9~9-9-------------------------------------------------------|
A-----------------------9-9h11p9h11~11-11-11-11p9-9-2~------------------------|
E-----------------------------------------------------------------------------|

Verse x1 (0:50 - 1:05)
e-------------------------------------------------------------------------------|
B-------------------------------------------------------------------------------|
G-------------------------------------------------------------------------------|
D-------------------------------------------------------------------------------|
A-------------------------------------------------------------------------------|
E---7-7-7-7-7-7-7-7-7-7-7-7-7-7-7-7\0-0-0-0-0-0-0-0-0-0-0-0-0-0-0-0/7-7-7-7-7-7-|

e-----------------------------------------------------------------------------|
B-----------------------------------------------------------------------------|
G-----------------------------------------------------------------------------|
D-----------------------------------------------------------------------------|
A-----------------------------------------------------------------------------|
E---7-7-7-7-7-7-7-7-7-7\0-0-0-0-0-0-0-0-0-0-0-0-0-0-0-0-----------------------|

Chorus x1 (1:05 - 1:20)
e-----------------------------------------------------------------------------|
B-----------------------------------------------------------------------------|
G---9-9-8------9~8~-----------------------------------------------------------|
D--------9~9-9----9~9-9-------------------------------------------------------|
A-----------------------9-9h11p9h11~11-11-11-11p9-9-9~9-9-9-------------------|
E-----------------------------------------------------------------------------|

e-----------------------------------------------------------------------------|
B-----------------------------------------------------------------------------|
G---9-9-8------9~8~-----------------------------------------------------------|
D--------9~9-9----9~9-9-------------------------------------------------------|
A-----------------------9-9h11p9h11~11-11-11-11p9-9-2~------------------------|
E-----------------------------------------------------------------------------|

Verse x1 (1:20 - 1:34)
Listen closely for the fast strumming.
e-------------------------------------------------------------------------------|
B-------------------------------------------------------------------------------|
G-------------------------------------------------------------------------------|
D------------------------------------------------------------------99999999999--|
A------------------------------------------------------------------OR-----------|
E---7-7-7-7-7-7-7-7-7-7-7-7-7-7-7-7\0-0-0-0-0-0-0-0-0-0-0-0-0-0-0-0/7-7-7-7-7-7-|

e-----------------------------------------------------------------------------|
B-----------------------------------------------------------------------------|
G-----------------------------------------------------------------------------|
D---999999999999999999999999999999999999999999999999999-----------------------|
A-----------------------------------------------------------------------------|
E---7-7-7-7-7-7-7-7-7-7\0-0-0-0-0-0-0-0-0-0-0-0-0-0-0-0-----------------------|

Chorus x2 (1:34 - 2:04)
e-----------------------------------------------------------------------------|
B-----------------------------------------------------------------------------|
G---9-9-8------9~8~-----------------------------------------------------------|
D--------9~9-9----9~9-9-------------------------------------------------------|
A-----------------------9-9h11p9h11~11-11-11-11p9-9-9~9-9-9-------------------|
E-----------------------------------------------------------------------------|

e-----------------------------------------------------------------------------|
B-----------------------------------------------------------------------------|
G---9-9-8------9~8~-----------------------------------------------------------|
D--------9~9-9----9~9-9-------------------------------------------------------|
A-----------------------9-9h11p9h11~11-11-11-11p9-9-2~------------------------|
E-----------------------------------------------------------------------------|

Solo x1 (2:10 - 2:25)
e--------------------------------9/14-----14-----14----14-14------------------|
B---16-16-16--14-14-14--12-12-12-----12~12--11~11--9~9------14-14-12----------|
G---16-16-16--15-15-15--13-13-13----------------------------------------------|
D-----------------------------------------------------------------------------|
A-----------------------------------------------------------------------------|
E-----------------------------------------------------------------------------|

e--------------------------------9/14-----14-----14---------------------------|
B---16-16-16--14-14-14--12-12-12-----12~12--14~14--16~17~19~\0----------------|
G---16-16-16--15-15-15--13-13-13----------------------------------------------|
D-----------------------------------------------------------------------------|
A-----------------------------------------------------------------------------|
E-----------------------------------------------------------------------------|

Verse x1 (2:25 - 2:40)
e-------------------------------------------------------------------------------|
B-------------------------------------------------------------------------------|
G-------------------------------------------------------------------------------|
D-------------------------------------------------------------------------------|
A-------------------------------------------------------------------------------|
E---7-7-7-7-7-7-7-7-7-7-7-7-7-7-7-7\0-0-0-0-0-0-0-0-0-0-0-0-0-0-0-0/7-7-7-7-7-7-|

e-----------------------------------------------------------------------------|
B-----------------------------------------------------------------------------|
G-----------------------------------------------------------------------------|
D-----------------------------------------------------------------------------|
A-----------------------------------------------------------------------------|
E---7-7-7-7-7-7-7-7-7-7\0-0-0-0-0-0-0-0-0-0-0-0-0-0-0-0-----------------------|

Chorus x6 (2:40 - 3:22)
e-----------------------------------------------------------------------------|
B-----------------------------------------------------------------------------|
G---9-9-8------9~8~-----------------------------------------------------------|
D--------9~9-9----9~9-9-------------------------------------------------------|
A-----------------------9-9h11p9h11~11-11-11-11p9-9-9~9-9-9-------------------|
E-----------------------------------------------------------------------------|

e-----------------------------------------------------------------------------|
B-----------------------------------------------------------------------------|
G---9-9-8------9~8~-----------------------------------------------------------|
D--------9~9-9----9~9-9-------------------------------------------------------|
A-----------------------9-9h11p9h11~11-11-11-11p9-9-2~------------------------|
E-----------------------------------------------------------------------------|

Outro (3:22 - 3:44)
Instrumental

Key:

\ = slide down
/ = slide up
~ = let it ring
h = hammer on
p = pull off
            
Submit corrections

↑ Back to top | Tablatures and chords for acoustic guitar and electric guitar, ukulele, drums are parodies/interpretations of the original songs. You may use it for private study, scholarship, research or language learning purposes only