Home » S » Sheryl Crow »

Sheryl Crow - Soak Up The Sun Bass

Artists:  A B C D E F G H I J K L M N O P Q R S T U V W X Y Z # 

Soak Up The Sun Bass

(ver. 2) Click to play this song!
Sheryl Crow
 Rating:
4.3/5 (27 votes)
                [Intro] 0:06
 
No bass part for this section (12 bars)
 
 
[Verse 1] 0:31
 
No bass part for this section (8 bars)
 
 
[Pre-Verse 2] 0:47
 
No bass part fot shis section (2 bars)
 
 
[Verse 2] 0:52
 
No bass part for the first 7 bars, followed by:
 
     1    +    2    +    3    +    4    +
G |-----------------------------------------|
D |-----------------------------------------|
A |-----------------------------------------|
E |--------------------------------5\-------|
 
 
[Chorus 1] 1:08
 
     1    +    2    +    3    +    4    +      1    +    2    +    3    +    4    +
G |-----------------------------------------|-----------------------------------------|
D |--2---------2--------------2---------2---|-------2----2---------2----4----2----0---|
A |-----------------------------------------|-----------------------------------------|
E |-----------------------------------------|-----------------------------------------|
 
 
     1    +    2    +    3    +    4    +      1    +    2    +    3    +    4    +
G |-----------------------------------------|-----------------------------------------|
D |-----------------------------------------|-----------------------------------------|
A |--2---------2---------0----2---------2---|-------0----2---------2----4----2----0---|
E |-----------------------------------------|-----------------------------------------|
 
 
     1    +    2    +    3    +    4    +      1    +    2    +    3    +    4    +
G |-----------------------------------------|-----------------------------------------|
D |--4----4---------4----6----6---------6---|--7----7---------7-----------------------|
A |-----------------------------------------|----------------------0----0---------0---|
E |-----------------------------------------|-----------------------------------------|
 
 
     1    +    2    +    3    +    4    +      1    +    2    +    3    +    4    +
G |-----------------------------------------|-----------------------------------------|
D |-----------------------------------------|-----------------------------------------|
A |--2---------2---------0----2---------2---|-------0----2---------2----4----2----0---|
E |-----------------------------------------|-----------------------------------------|
 
 
     1    +    2    +    3    +    4    +      1    +    2    +    3    +    4    +
G |-----------------------------------------|-----------------------------------------|
D |--2---------2---------2----2---------2---|-------2----2---------2----4----2----0---|
A |-----------------------------------------|-----------------------------------------|
E |-----------------------------------------|-----------------------------------------|
 
 
     1    +    2    +    3    +    4    +      1    +    2    +    3    +    4    +
G |-----------------------------------------|-----------------------------------------|
D |-----------------------------------------|-----------------------------------------|
A |--2---------2---------0----2---------2---|-------0----2---------2----4----2----0---|
E |-----------------------------------------|-----------------------------------------|
 
 
     1    +    2    +    3    +    4    +      1    +    2    +    3    +    4    +
G |-----------------------------------------|-----------------------------------------|
D |--4----4---------4----6----6---------6---|--7----7---------7-----------------------|
A |-----------------------------------------|----------------------0----0---------0---|
E |-----------------------------------------|-----------------------------------------|
 
 
     1    +    2    +    3    +    4    +      1    +    2    +    3    +    4    +
G |-----------------------------------------|-----------------------------------------|
D |-----------------------------------------|-----------------------------------------|
A |--2---------2---------0----2---------2---|-------2--------------2----4----2----0---|
E |-----------------------------------------|-----------------------------------------|
 
 
[Post-Chorus 1] 1:39
 
     1    +    2    +    3    +    4    +      1    +    2    +    3    +    4    +
G |-----------------------------------------|-----------------------------------------|
D |--2----0----2----------------------------|-----------------------------------------|
A |-----------------------------------------|-----------------------------------------|
E |-----------------------------------------|-----------------------------------------|
 
 
     1    +    2    +    3    +    4    +      1    +    2    +    3    +    4    +
G |-----------------------------------------|-----------------------------------------|
D |--2----0----2----------------------------|-----------------------------------------|
A |-----------------------------------------|-----------------------------------------|
E |-----------------------------------------|-----------------------------------------|
 
 
[Verse 3] 1:47
 
     1    +    2    +    3    +    4    +      1    +    2    +    3    +    4    +
G |-----------------------------------------|-----------------------------------------|
D |--2----0----2----------------------------|-----------------------------------------|
A |-----------------------------------------|-----------------------------------------|
E |-----------------------------------------|-----------------------------------------|
 
 
     1    +    2    +    3    +    4    +      1    +    2    +    3    +    4    +
G |-----------------------------------------|-----------------------------------------|
D |--2----0----2----------------------------|-----------------------------------------|
A |-----------------------------------------|-----------------------------------------|
E |-----------------------------------------|-----------------------------------------|
 
 
     1    +    2    +    3    +    4    +      1    +    2    +    3    +    4    +
G |-----------------------------------------|-----------------------------------------|
D |--2----0----2----------------------------|-----------------------------------------|
A |-----------------------------------------|-----------------------------------------|
E |-----------------------------------------|-----------------------------------------|
 
 
     1    +    2    +    3    +    4    +      1    +    2    +    3    +    4    +
G |-----------------------------------------|-----------------------------------------|
D |--2----0----2----------------------------|-----------------------------------------|
A |-----------------------------------------|-----------------------------------------|
E |-----------------------------------------|-----------------------------------------|
 
 
[Pre-Chorus 2] 2:03
 
No bass part for the first 3 bars of this section followed by:
 
     1    +    2    +    3    +    4    +
G |-----------------------------------------|
D |-----------------------------------------|
A |-----------------------------------------|
E |--------------------------------5\-------|
 
 
[Chorus 2] 2:11
 
     1    +    2    +    3    +    4    +      1    +    2    +    3    +    4    +
G |-----------------------------------------|-----------------------------------------|
D |--2---------2---------2----2---------2---|-------2----2---------2----4----2----0---|
A |-----------------------------------------|-----------------------------------------|
E |-----------------------------------------|-----------------------------------------|
 
 
     1    +    2    +    3    +    4    +      1    +    2    +    3    +    4    +
G |-----------------------------------------|-----------------------------------------|
D |-----------------------------------------|-----------------------------------------|
A |--2---------2---------0----2---------2---|-------0----2---------2----4----2----0---|
E |-----------------------------------------|-----------------------------------------|
 
 
     1    +    2    +    3    +    4    +      1    +    2    +    3    +    4    +
G |-----------------------------------------|-----------------------------------------|
D |--4----4---------4----6----6---------6---|--7----7---------7-----------------------|
A |-----------------------------------------|----------------------0----0---------0---|
E |-----------------------------------------|-----------------------------------------|
 
 
     1    +    2    +    3    +    4    +      1    +    2    +    3    +    4    +
G |-----------------------------------------|-----------------------------------------|
D |-----------------------------------------|-----------------------------------------|
A |--2---------2---------0----2---------2---|-------0----2---------2----4----2----0---|
E |-----------------------------------------|-----------------------------------------|
 
 
     1    +    2    +    3    +    4    +      1    +    2    +    3    +    4    +
G |-----------------------------------------|-----------------------------------------|
D |--2---------2---------2----2---------2---|-------2----2---------2----4----2----0---|
A |-----------------------------------------|-----------------------------------------|
E |-----------------------------------------|-----------------------------------------|
 
 
     1    +    2    +    3    +    4    +      1    +    2    +    3    +    4    +
G |-----------------------------------------|-----------------------------------------|
D |-----------------------------------------|-----------------------------------------|
A |--2---------2---------0----2---------2---|-------0----2---------2----4----2----0---|
E |-----------------------------------------|-----------------------------------------|
 
 
     1    +    2    +    3    +    4    +      1    +    2    +    3    +    4    +
G |-----------------------------------------|-----------------------------------------|
D |--4----4---------4----6----6---------6---|--7----7---------7-----------------------|
A |-----------------------------------------|----------------------0----0---------0---|
E |-----------------------------------------|-----------------------------------------|
 
 
     1    +    2    +    3    +    4    +      1    +    2    +    3    +    4    +
G |-----------------------------------------|-----------------------------------------|
D |-----------------------------------------|-----------------------------------------|
A |--2---------2---------0----2---------2---|-------2----2---------2----4----2----0---|
E |-----------------------------------------|-----------------------------------------|
 
 
[Post-Chorus 2] 2:44
 
     1    +    2    +    3    +    4    +      1    +    2    +    3    +    4    +
G |-----------------------------------------|-----------------------------------------|
D |--2----0----2----------------------------|-----------------------------------------|
A |-----------------------------------------|-----------------------------------------|
E |-----------------------------------------|-----------------------------------------|
 
 
     1    +    2    +    3    +    4    +      1    +    2    +    3    +    4    +
G |-----------------------------------------|-----------------------------------------|
D |--2----0----2/---------------------------|-----------------------------------------|
A |-----------------------------------------|-----------------------------------------|
E |-----------------------------------------|-----------------------------------------|
 
 
     1    +    2    +    3    +    4    +      1    +    2    +    3    +    4    +
G |-----------------------------------------|-----------------------------------------|
D |--2----0----2/---------------------------|-----------------------------------------|
A |-----------------------------------------|-----------------------------------------|
E |-----------------------------------------|-----------------------------------------|
 
 
     1    +    2    +    3    +    4    +      1    +    2    +    3    +    4    +
G |-----------------------------------------|-----------------------------------------|
D |--2----0----2/\--------------------------|-----------------------------------------|
A |-----------------------------------------|-----------------------------------------|
E |-----------------------------------------|-----------------------------------------|
 
 
[Verse 4] 3:00
 
No bass part for this section (8 bars)
 
 
[Pre-Chorus 3] 3:15
 
No bass part for the first 4 bars of this section followed by:
 
     1    +    2    +    3    +    4    +
G |-----------------------------------------|
D |-----------------------------------------|
A |-----------------------------------------|
E |--------------------------------5\-------|
 
 
[Chorus 3] 3:25
 
     1    +    2    +    3    +    4    +      1    +    2    +    3    +    4    +
G |-----------------------------------------|-----------------------------------------|
D |--2---------2---------2----2---------2---|-------2----2---------2----4----2----0---|
A |-----------------------------------------|-----------------------------------------|
E |-----------------------------------------|-----------------------------------------|
 
 
     1    +    2    +    3    +    4    +      1    +    2    +    3    +    4    +
G |-----------------------------------------|-----------------------------------------|
D |-----------------------------------------|-----------------------------------------|
A |--2---------2---------0----2---------2---|-------2----2---------2----4----2----0---|
E |-----------------------------------------|-----------------------------------------|
 
 
     1    +    2    +    3    +    4    +      1    +    2    +    3    +    4    +
G |-----------------------------------------|-----------------------------------------|
D |--4----4---------4----6----6---------6---|--7----7---------7-----------------------|
A |-----------------------------------------|----------------------0----0---------0---|
E |-----------------------------------------|-----------------------------------------|
 
 
     1    +    2    +    3    +    4    +      1    +    2    +    3    +    4    +
G |-----------------------------------------|-----------------------------------------|
D |-----------------------------------------|-----------------------------------------|
A |--2---------2---------2----2---------2---|-------2----2----2----2----4----2----0---|
E |-----------------------------------------|-----------------------------------------|
 
 
     1    +    2    +    3    +    4    +      1    +    2    +    3    +    4    +
G |-----------------------------------------|-----------------------------------------|
D |--2---------2---------2----2---------2---|-------2----2---------2----4----2----0---|
A |-----------------------------------------|-----------------------------------------|
E |-----------------------------------------|-----------------------------------------|
 
 
     1    +    2    +    3    +    4    +      1    +    2    +    3    +    4    +
G |-----------------------------------------|-----------------------------------------|
D |-----------------------------------------|-----------------------------------------|
A |--2---------2---------0----2---------2---|-------2----2---------2----4----2----0---|
E |-----------------------------------------|-----------------------------------------|
 
 
     1    +    2    +    3    +    4    +      1    +    2    +    3    +    4    +
G |-----------------------------------------|-----------------------------------------|
D |--4----4---------4----6----6---------6---|--7----7---------7-----------------------|
A |-----------------------------------------|----------------------0----0---------0---|
E |-----------------------------------------|-----------------------------------------|
 
 
     1    +    2    +    3    +    4    +      1    +    2    +    3    +    4    +
G |-----------------------------------------|-----------------------------------------|
D |-----------------------------------------|-----------------------------------------|
A |--2---------2----0----2----2---------2---|-------2----2----2----2----4----2----0---|
E |-----------------------------------------|-----------------------------------------|
 
 
[Chorus 4] 3:57
 
     1    +    2    +    3    +    4    +      1    +    2    +    3    +    4    +
G |-----------------------------------------|-----------------------------------------|
D |--2---------2---------2----2---------2---|-------2----2---------2----4----2----0---|
A |-----------------------------------------|-----------------------------------------|
E |-----------------------------------------|-----------------------------------------|
 
 
     1    +    2    +    3    +    4    +      1    +    2    +    3    +    4    +
G |-----------------------------------------|-----------------------------------------|
D |-----------------------------------------|-----------------------------------------|
A |--2---------2---------0----2---------2---|-------0----2---------2----4----2----0---|
E |-----------------------------------------|-----------------------------------------|
 
 
     1    +    2    +    3    +    4    +      1    +    2    +    3    +    4    +
G |-----------------------------------------|-----------------------------------------|
D |--4----4---------4----6----6---------6---|--7----7---------7-----------------------|
A |-----------------------------------------|----------------------0----0---------0---|
E |-----------------------------------------|-----------------------------------------|
 
 
     1    +    2    +    3    +    4    +      1    +    2    +    3    +    4    +
G |-----------------------------------------|-----------------------------------------|
D |-----------------------------------------|-----------------------------------------|
A |--2---------2---------2----2---------2---|-------2----2----2----2----4----2----0---|
E |-----------------------------------------|-----------------------------------------|
 
 
     1    +    2    +    3    +    4    +      1    +    2    +    3    +    4    +
G |-----------------------------------------|-----------------------------------------|
D |--2---------2---------2----2---------2---|-------2----2---------2----4----2----0---|
A |-----------------------------------------|-----------------------------------------|
E |-----------------------------------------|-----------------------------------------|
 
 
     1    +    2    +    3    +    4    +      1    +    2    +    3    +    4    +
G |-----------------------------------------|-----------------------------------------|
D |-----------------------------------------|-----------------------------------------|
A |--2---------2---------0----2---------2---|-------0----2---------2----4----2----0---|
E |-----------------------------------------|-----------------------------------------|
 
 
     1    +    2    +    3    +    4    +      1    +    2    +    3    +    4    +
G |-----------------------------------------|-----------------------------------------|
D |--4----4---------4----6----6---------6---|--7----7---------7-----------------------|
A |-----------------------------------------|----------------------0----0---------0---|
E |-----------------------------------------|-----------------------------------------|
 
 
     1    +    2    +    3    +    4    +      1    +    2    +    3    +    4    +
G |-----------------------------------------|-----------------------------------------|
D |-----------------------------------------|-----------------------------------------|
A |--2---------2----2----2----2---------2---|-------2----2----2----2----4----2----0---|
E |-----------------------------------------|-----------------------------------------|
 
 
[Outro] 4:30
 
No bass part for the first 3 bars, followed by:
 
     1    +    2    +    3    +    4    +      1    +    2    +    3    +    4    +
G |----------------------4----6----4--------|-----------------------------------------|
D |-------------------------------------7---|--4-------------------2------------------|
A |-----------------------------------------|-----------------------------------------|
E |-----------------------------------------|-----------------------------------------|
 
 
     1    +    2    +    3    +    4    +      1    +    2    +    3    +    4    +
G |-----------------------------------------|-----------------------------------------|
D |-----------------------------------------|-----------------------------------------|
A |--4-------------------0------------------|--2--------------------------------------|
E |-----------------------------------------|-----------------------------------------|
            
Submit corrections

↑ Back to top | Tablatures and chords for acoustic guitar and electric guitar, ukulele, drums are parodies/interpretations of the original songs. You may use it for private study, scholarship, research or language learning purposes only