Home » S » Sheryl Crow »

Sheryl Crow - If It Makes You Happy Tabs

Artists:  A B C D E F G H I J K L M N O P Q R S T U V W X Y Z # 

If It Makes You Happy Tabs
Version #3
Sheryl Crow


Copy URL

/ slide up
\ slide down
p pull off

Mostly guitar 1 tabbed
Standard tuning

-------|----------------------------------------|-----------------------------|
-------|-----0------0-----1------1---1--0-----0-|-----------------------------|
-------|-----0------0-----2------2---2--0-----0-|-----------------------------|
-------|-----0-------------------0---0-----2----|-----------------------------|
-------|-----x-----------------------x-----x----|-----------------------------|
-------|-3---3---3-----3-----3-------3-----3----|-----------------------------|
  Verse

-------|---------------0-1-3-1--0----|----------------------------------------|
-------|-----0------0--1-1-1-1--1--0-|----------------------------------------|
-------|-----0------0--------------0-|----------------------------------------|
-------|-----0---------------------0-|----------------------------------------|
-------|-----x-----------------------|----------------------------------------|
-------|-3---3---3-------------------|----------------------------------------|
  Verse part

-------|---------------0-1-3-1--0--------0------0--------10-10----------------|
-------|-----0------0--1-1-1-1--1--3-3/5-5--3-3-5--5/7---7--7----7p5-5---3----|
-------|-----0------0--0-0-0-0--0-------------2-4------------------------2----|
-------|-----0-----------------------------------------------------------0----|
-------|-----x----------------------------------------------------------------|
-------|-3---3---3------------------------------------------------------------|
  Prechorus

-5-------5---------|----------------------------------------------------------|
-3----3--3--x-5/7--|----------------------------------------------------------|
-2----2--2--x------|----------------------------------------------------------|
-0----0--0--x------|----------------------------------------------------------|
-------------------|----------------------------------------------------------|
-------------------|----------------------------------------------------------|
                      "If it makes you "
-------|-------------------------------------------------0-0-0----------------|
-------|----------3---1--------1---------------0--1-0--0-3-3-3--3-----0-------|
-------|----2-----2-------0----0-----0---------0--2-0--0-2-2-2-----2-------2--|
-------|--------------------2--2---------2-----0--0-0--0----------------------|
-------|-0-----0------------3------3---3--------------------------------0-----|
-------|-----------------------------------3----------------------------------|
  Chorus riff                     "It "  "Bad                   "If"

---------------------------|------------|-----------|-------------------------|
----3---1--------1---------|------------|-----------|-------------------------|
----2-------0----0-----0---|------------|-----------|-------------------------|
--------------2--2---------|------------|-----------|-------------------------|
-0------------3------3-----|------------|-----------|-------------------------|
---------------------------|------------|-----------|-------------------------|
                             Verse Riff   Prechorus

-----|---------10----------10-------------------------15----------15---------|
-----|---10/12----12\10/12----12\10/12\10-------15/17----17\15/17----17\15---|
-----|-----------------------------------------------------------------------|
-----|-----------------------------------------------------------------------|
-----|-----------------------------------------------------------------------|
-----|-----------------------------------------------------------------------|
     G2 during 2nd verse

------------|-----------|----------------------------|-----------|----0------|
------------|-----------|-----0--1-0-1-0---0--0--0---|-----------|-1--0------|
------------|-----------|-----0--2-0-2-0---0--0--0-2-|-----------|-0--0------|
------------|-----------|-----0--0-0-0-0---0--0--0-0-|-----------|----2------|
------------|-----------|----------------------------|-----------|----2------|
------------|-----------|-3--------------------------|-----------|----0------|
2nd Chorus  chorus riff                  "If it "    chorus riff

--------|---------------------------------------------------------------------|
--------|-----0--------------1---1-1-1-1-----1--------------0---0-0-0-0-----0-|
--------|-----0--------------0---0-0-0-0-----0--------------0---0-0-0-0-----0-|
--------|-2---2--5-4-2-0-2---2---2-2-2-2-2---2--5-4-2-0-----2---2-2-2-2-2---2-|
--------|-2---2--------------3---3-3-3-3-3---3----------2---2---2-2-2-2-2---2-|
--------|-0---0---------------------------------------------0---0-0-0-0-0---0-|
  2 guitars arranged for 1 intstrumental

------------------------------------------|-----------|----------|-----------|
--------------1---1-1-1-1-----1-----------|-----------|----------|-----------|
--------------0---0-0-0-0-----0-----------|-----------|----------|-----------|
--5-4-2-0-2---2---2-2-2-2-2---2--2-2-0----|-----------|----------|-----------|
--------------3---3-3-3-3-3---3---------0-|-----------|----------|-----------|
------------------------------------------|-----------|----------|-----------|
                                            Verse Riff  Prechorus Chorus out
            
Submit corrections

↑ Back to top | Tablatures and chords for acoustic guitar and electric guitar, ukulele, drums are parodies/interpretations of the original songs. You may use it for private study, scholarship, research or language learning purposes only