Home » S » Sheryl Crow »

Sheryl Crow - Anything But Down Tabs

Artists:  A B C D E F G H I J K L M N O P Q R S T U V W X Y Z # 

Anything But Down Tabs
Version #1
Sheryl Crow


Copy URL


This song has a whole bunch of guitars going, so I
just did the basic 
chords (which are more complex than than they sound on
the surface!) 
and the solos.  I hope it's accurate--there's a huge
void for accurate
Sheryl tabs on the net.  Please feel free to send any
corrections to 


Note: Am-C means that half the beat is Am and half is
C.


Chords
------

Intro:      Em / / Em7   Em / / Em7

Verse:      Em D A C     Em D A C
            Em A C C

1st Chorus: G D *Am Am*  G D *Am Am*
            G D *Am Am*  Em

Transition: Em Em Em7

Verse:      Em D A C     Em D A C
            Em A C C

2nd Chorus: G D *Am Am*  G D *Am Am*
            Em F Am Am

1st Bridge: Em A C C     Em A C C

Main Solo:  G D Am Am-C  G Dm7 Am Am  Am-let ring

Verse:      Em D A C     Em D A C
            Em A C C

3rd Chorus: G D *Am Am*  G D *Am Am*
            G D *Am Am*  G F Em Em
            G F Am Am

2nd Bridge: G D Am C     G D *Am Am*
            G D Am C     G F Am-let ring       




Solos
-----

Intro Solo

E|---------|----------------|-------------------||
B|---------|-5-7-5--3-------|-5-7-5-3---3---7\0-||
G|---------|----------6-4---|---------6---------||
D|-2-4-2-0-|----------------|-------------------||
A|---------|----------------|-------------------||
E|---------|----------------|-------------------||



Transition

E|------------------------||
B|------7--5-7-5--3-------||
G|------------------6-4---||
D|--5-7-------------------||
A|------------------------||
E|------------------------||



Main Solo

E|-----------10--12\5---3-5-3-5-|-7--8-10--12\5---5-3--3-5--b2(3)-r0--||
B|--5/12--13--------------------|-------------------------------------||
G|------------------------------|-------------------------------------||
D|------------------------------|-------------------------------------||
A|------------------------------|-------------------------------------||
E|------------------------------|-------------------------------------||


  
Play this over *ed areas (i.e. "*Am Am*")

E|----------------------
B|----1---3---5---7---8-
G|----------------------
D|--2---4---5---7---9---
A|----------------------
E|----------------------
            
Submit corrections

↑ Back to top | Tablatures and chords for acoustic guitar and electric guitar, ukulele, drums are parodies/interpretations of the original songs. You may use it for private study, scholarship, research or language learning purposes only