Home » S » Sheryl Crow »

Sheryl Crow - A Change Tabs

Artists:  A B C D E F G H I J K L M N O P Q R S T U V W X Y Z # 

A Change Tabs
Version #2
Sheryl Crow


Copy URL
Ok, this is the first song I have ever taken the time to tab, so I know that there must be mistakes. But over all, this is a really easy, fun song to play.


P= pulloff
/=Slide down
\=Slide up


Chords used:

      A          Em             G

E|---------------0--------------3-------------------------
A|-0-------------2--------------2-------------------------
D|-2--------------2--------------0------------------------    
G|-2-------------0--------------0-------------------------
B|-2-------------0--------------0-------------------------
e|-0-------------0--------------3-------------------------


MAIN LICK: 

A A A Em

You’ll have to figure out the strumming pattern yourself



INTRO:

Main lick



VERSE 1:

G
Bottom feeder insincere   Em Em 

Em
Profit lo-fi pioneer 
A
Sell the house and go to school

Em
Get a young girlfriend

Em
Daddy’s jewel   A A


CHORUS: Main Lick

The main lick is then continued untill the solo, and then through the second verse


SOLO:

E|----------------------------------------
A|----------------------------------------
D|-13-13-13p11----------------------------
G|----------------------------------------
B|----------------------------------------
E|----------------------------------------

E|-----------------------------------------
A|-13--------------------------------------
D|-13-13-13p11-13-11-----------------------
G|-----------------------------------------
B|-----------------------------------------
E|-----------------------------------------

E|-----------------------------------------
A|-----------------------------------------
D|-14-13-14-15-----------------------------
G|-----------------------------------------
B|-----------------------------------------
E|-----------------------------------------

E|-----------------------------------------
A|-----------------------------------------
D|-14-13-14p13p14-14-----------------------
G|-----------------------------------------
B|-----------------------------------------
E|-----------------------------------------

E|-----------------------------------------
A|-----------------------------------------
D|-16p15p16/17-17\14-----------------------
G|-----------------------------------------
B|-----------------------------------------
E|-----------------------------------------


2nd VERSE (using Main Lick)


Then:

A
I’ve been thinking about catching a train  Em Em

   A      Em            A    
Leave my phone machine by the raidar range

A
Hello, it’s me, I’m not at home 

A
If you’d like to reach me leave me alone


CHORUS: Main Lick

A
Hello it’s me, I’m not at home

A
If you’d like to reach me, leave me alone

CHORUS: Main Lick

And  that’s it!!! Like I said, pretty easy, huh?
Well, have fun!!

ROCK ON!!!!!!!!!!!
            
Submit corrections

↑ Back to top | Tablatures and chords for acoustic guitar and electric guitar, ukulele, drums are parodies/interpretations of the original songs. You may use it for private study, scholarship, research or language learning purposes only