Home » S » Shellac »

Shellac - Mayor Surveyor Tabs

Artists:  A B C D E F G H I J K L M N O P Q R S T U V W X Y Z # 

Mayor Surveyor Tabs

(ver. 1) Click to play this song!
Shellac
1 & + & 2 & + & 3 & + & 4 & + &
e|---------------------------------|
b|-------3h6-----------------------|
g|-2h5-----------------------------| x2
d|---------------------------------|
a|---------------------0---3--p0---|
e|-------------0---3---------------|

  1 & + & 2 & + & 3 & + &
e|-------------------------|
b|-------------------------|
g|-------------------------| x16
d|-------0h3---------------|
a|-0h3----------------p0---|
e|-------------0---3-------|

  1 & + & 2 & + & 3 & + & 4 & + &
e|---------------------------------|
b|---------------------------------|
g|---------------------------------| x32
d|-------0h3-----------------------|
a|-0h3-----------------0---3--p0---|
e|-------------0---3---------------|

  1 & + & 2 & + & 3 & + & 4 & + & 1 & + & 2 & + & 3 & + &
e|---------------------------------------------------------|
b|---------------------------------------------------------|
g|---------------------------------------------------------|  x16
d|-------0h3-----------------------------0h3---------------|
a|-0h3-----------------0---3--p0---0h3----------------p0---|
e|-------------0---3---------------------------0---3-------|            
Submit corrections

↑ Back to top | Tablatures and chords for acoustic guitar and electric guitar, ukulele, drums are parodies/interpretations of the original songs. You may use it for private study, scholarship, research or language learning purposes only