Home » S » Shellac »

Shellac - Dude Incredible Tabs

Artists:  A B C D E F G H I J K L M N O P Q R S T U V W X Y Z # 

Dude Incredible Tabs

(ver. 1) Click to play this song!
Shellac
[Intro]

e|-----------------------------------------------|---------------------------------------------------|
B|-----------------------------------------------|---------------------------------------------------|
G|-----------------------------------------------|---------------------------------------------------|
D|-----0---0---0-3p0---0-----0-----0---0---0-----|-----0---0---0----0h2-3p2p0----------0---0---0-----|
A|-0h3---5---5-------5---5-5---0h3---5---5-------|-0h3---5---5---0h3----------3p0--0h3---5---5-------|
D|-------------------------------------------5-7-|-----------------------------------------------5-7-|

e|---------------------------------------------------|---------------------------------------------------|
B|---------------------------------------------------|---------------------------------------------------|
G|---------------------------------------------------|---------------------------------------------------|
D|-----0---0---0-------0h2-3p2---------0---0---0-----|-----0---0---0-0h2-2/3-3/5-5/7-----0---0---0-------|
A|-0h3---5---5---0h2h3---------3p0-0h3---5---5-------|-0h3---5---5-------------------0h3---5---5---------|
D|-----------------------------------------------5-7-|-----------------------------------------------5-7-|
            
Submit corrections

↑ Back to top | Tablatures and chords for acoustic guitar and electric guitar, ukulele, drums are parodies/interpretations of the original songs. You may use it for private study, scholarship, research or language learning purposes only