Home » S » Shearwater »

Shearwater - I Was A Cloud Tabs

Artists:  A B C D E F G H I J K L M N O P Q R S T U V W X Y Z # 

I Was A Cloud Tabs

(ver. 1) Click to play this song!
Shearwater


INTRO

e|----0-----0-----0-----0-----0-----0--|----0-----0-----0-----0-----0-----0--|
B|-------------0-----------------0-----|-------------0-----------------0-----|
G|-------1-----------------1-----------|-------1-----------------1-----------|
D|-2-----------------2-----------------|-2-----------------2-----------------|
A|-------------------------------------|-------------------------------------|
E|-------------------------------------|-------------------------------------|


e|----0-----0-----0-----0-----0-----0--|----0-----0-----0-----0-----0-----0--|
B|-------------------------------------|-------------------------------------|
G|-------------0-----------------0-----|-------------0-----------------0-----|
D|-------0-----------------0-----------|-------0-----------------0-----------|
A|-3-----------------3-----------------|-3-----------------3-----------------|
E|-------------------------------------|-------------------------------------|


e|----0-----0-----0-----0-----0-----0--|----0-----0-----0-----0-----0-----0--|
B|-------------0-----------------0-----|-------------0-----------------0-----|
G|-------1-----------------1-----------|-------1-----------------1-----------|
D|-------------------2-----------------|-2-----------------2-----------------|
A|-------------------------------------|-------------------------------------|
E|-0-----------------------------------|-------------------------------------|

                                                                             
e|----0-----0-----0-----0-----0-----0--|----0-----0-----0-----0-----0-----0--|
B|-------------------------------------|-------------------------------------|
G|-------------0-----------------0-----|-------------0-----------------0-----|
D|-------0-----------------0-----------|-------0-----------------0-----------|
A|-3-----------------3-----------------|-3-----------------3-----------------|
E|-------------------------------------|-------------------------------------|


SECTION A
 (I was a cloud...)
e|----0-----0-----0-----0-----0-----0--|----0-----0-----0-----0-----0-----0--|
B|-------------0-----------------0-----|-------------0-----------------0-----|
G|-------1-----------------1-----------|-------1-----------------1-----------|
D|-------------------2-----------------|-2-----------------2-----------------|
A|-------------------------------------|-------------------------------------|
E|-0-----------------------------------|-------------------------------------|

                                                        (repeat section twice)            
e|----0-----0-----0-----0-----0-----0--|----0-----0-----0-----0-----0-----0--|
B|-------------------------------------|-------------------------------------|
G|-------------0-----------------0-----|-------------0-----------------0-----|
D|-------0-----------------0-----------|-------0-----------------0-----------|
A|-3-----------------3-----------------|-3-----------------3-----------------|
E|-------------------------------------|-------------------------------------|
                                                            

SECTION B
 (but this little one...)
e|----0-----0-----0-----0-----0-----0--|----0-----0-----0-----0-----0-----0--|
B|-------------------------------------|-------------------------------------|
G|-------------4-----------------4-----|-------------4-----------------4-----|
D|-------4-----------------4-----------|-------4-----------------4-----------|
A|-5-----------------5-----------------|-5-----------------5-----------------|
E|-------------------------------------|-------------------------------------|

                                                        (repeat section twice)
e|----0-----0-----0-----0-----0-----0--|----0-----0-----0-----0-----0-----0--|
B|-------------------------------------|-------------------------------------|
G|-------------2-----------------2-----|-------------2-----------------2-----|
D|-------2-----------------2-----------|-------2-----------------2-----------|
A|-3-----------------3-----------------|-3-----------------3-----------------|
E|-------------------------------------|-------------------------------------|
 
  
BRIDGE

e|----0-----0-----0-----0-----0-----0--|----0-----0-----0-----0-----0-----0--|
B|-------------------------------------|-------------------------------------|
G|-------------5-----------------4-----|-------------2-----------0-----------|
D|-------4-----------------4-----------|-------4-----------------------4-----|
A|-5-----------------5-----------------|-5-----------------5-----------------|
E|-------------------------------------|-------------------------------------|


SECTION C

e|----0-----0-----0-----0-----0-----0--|----0-----0-----0-----0-----0-----0--|
B|-------------3-----------------1-----|-------------0-----------------------|
G|-------------------------------------|-------------------------2-----0-----|
D|-------2-----------------2-----------|-------2-----------------------------|
A|-0-----------------0-----------------|-0-----------------0-----------------|
E|-------------------------------------|-------------------------------------|

                                  (repeat section many times till fade out...) 
e|----0-----0-----0-----0-----0-----0--|----0-----0-----0-----0-----0-----0--|
B|-------------------------------------|-------------------------------------|
G|-------------5-----------------4-----|-------------2-----------0-----------|
D|-------4-----------------4-----------|-------4-----------------------4-----|
A|-5-----------------5-----------------|-5-----------------5-----------------|
E|-------------------------------------|-------------------------------------|


PERFORMANCE:
------------

INTRO
SECTION A (x2) (I was a cloud...)
SECTION B (x2) (But this little one...)
BRIDGE
SECTION A (x2) (And in the dark...)
SECTION B (x2) (My end was imminent...)
BRIDGE
SECTION C (repeat till fade out)

Cheers to Shearwater for their inspiring music.
            
Submit corrections

↑ Back to top | Tablatures and chords for acoustic guitar and electric guitar, ukulele, drums are parodies/interpretations of the original songs. You may use it for private study, scholarship, research or language learning purposes only