Home » S » Shearwater »

Shearwater - I Love The Valley Oh Tabs

Artists:  A B C D E F G H I J K L M N O P Q R S T U V W X Y Z # 

I Love The Valley Oh Tabs

(ver. 1) Click to play this song!
Shearwater
-------------------------------------------------------------------------------
                      I Luv the Valley OH!! - Shearwater
-------------------------------------------------------------------------------

Tuning: Standard


Intro/Main riff

e|------------------------------------------------------|
B|------------------------------------------------------|
G|-----------------------------------------------------0| Repeat for rest
D|-/14--14-14-14---\5---5--/12--12-12-12---\10--10-----0| of song
A|------------------------------------------------------|
E|-/12--12-12-12---\3---3--/10--10-10-10---\8---8-------|

It changes strumming patterns occasionally and stops at times, but that's
all pretty obvious.



Riff 1 (0:11 and 2:25)

e|---10-10-8-8-7-7-5-5-3-3-2-2-0-0---|
B|-----------------------------------|
G|----------------------------------0| X2 at 0:11 and X4 at 2:25
D|----------------------------------0|
A|-----------------------------------|
E|-----------------------------------



Interlude (1:19)

e|------------------------------------------10----8-----|
B|---8-7-5-7--8---------------8-7-5-7--8----------------|
G|-----------------7----5-------------------------------|
D|------------------------------------------------------|
A|------------------------------------------------------|
E|------------------------------------------------------|

This is played by piano and harp.  I tabbed in the piano's octave because it
sounds better played alone, but the harp is actually playing an octave up.



Riff 2 (2:03)

|-------------------------------|
|----------------(3)------------|
|----4-------4-----------------0|  Repeat til end of song except for during the
|------5-------5---------------0|  "OH!!"
|-------------------------------|
|-------------------------------|

I'm not 100% sure that the D is in the song, but occasionally it sounds like
they may throw it in.  There may also be some other notes in there that I'm not
making out with the synths going.
 




**********************************************

/ - slide up
\ - slide down
() - optional note
---|
---|
--0| - repeat phrase
--0| 
---|
---|

**********************************************
            
Submit corrections

↑ Back to top | Tablatures and chords for acoustic guitar and electric guitar, ukulele, drums are parodies/interpretations of the original songs. You may use it for private study, scholarship, research or language learning purposes only