Home » S » Shearwater »

Shearwater - A Hush Tabs

Artists:  A B C D E F G H I J K L M N O P Q R S T U V W X Y Z # 

A Hush Tabs

(ver. 1) Click to play this song!
Shearwater
Capo: 1st fret
 
 
First way:
 
e|--------0-------|
B|------7---7-----|
G|--6-------------| x4
D|----------------|
A|----------------|
E|----------------|
 
then...
 
e|--------0--------|
B|------7---7------|
G|--4--------------| x4
D|-----------------|
A|-----------------|
E|-----------------|
 
 
Second way:
 
e|----------0------|
B|-----------------|
G|-------11---11---| x4
D|--11-------------|
A|-----------------|
E|-----------------|
 
then...
 
e|----------0------|
B|-----------------|
G|-------11---11---| x4
D|--9--------------|
A|-----------------|
E|-----------------|
            
Submit corrections

↑ Back to top | Tablatures and chords for acoustic guitar and electric guitar, ukulele, drums are parodies/interpretations of the original songs. You may use it for private study, scholarship, research or language learning purposes only