» » »

She And Him - Fools Rush In Tabs

Artists:  A B C D E F G H I J K L M N O P Q R S T U V W X Y Z # 

Fools Rush In Tabs

(ver. 1) Click to play this song!
She And Him
 Rating:
4/5 (4 votes)

 Fools Rush In lessons Tabs too difficult? Try these video lessons and learn fast
 
                -------------------------------------------------------------------------------
                                       Fools Rush In - She & Him
                                       (Lyrics By: Johnny Mercer)
-------------------------------------------------------------------------------

(This is the Levis Pioneer Session version. Its my first tab so if you have any 
corrections, info or want to add something just send me an email.)


Typical M. Ward Tuning :P

1: Use this open tuning: D A D F# B e   (Called D6/9)  
2: Place Capo on 2nd the Fret and you should have this: E B E Ab C# f# 
    (You might need to make small adjustments with capo on)

Thanks, and apologies if the words and tabs arent 100% matched up. 


Chords Used: (Dont know the names of these chords)
                                                                                
f# |---0-----0-----0----0-----2-----2-----0-----x-----|
C# |---0-----2-----3----0-----0-----3-----0-----6-----|
Ab |---1-----1-----1----3-----3-----3-----3-----4-----|
E  |---2-----2-----2----4-----1-----x-----2-----5-----|
B  |---2-----0-----0----0-----2-----2-----4-----x-----|
E  |---2-----x-----0----x-----x-----x-----4-----x-----|
                                                       
Intro:                                            

f# |------0--------0--------0---0--------|
C# |------2--------2--------0---0--------|
Ab |------1--------1-------/3--/3--------|
E  |------2--------2-------/4--/4--------|
B  |------2--------0--------0---0--------|
E  |------2--------x--------x---x--------|

Verse 1:

           Fools rush in    where angels fear to    tread 
f# |---0----------------0-----------------------0---0-------------|
C# |---0----------------2-----------------------0---0-------------|
Ab |---1----------------1----------------------/3--/3-------------|
E  |---2----------------2----------------------/4--/4-------------|
B  |---2----------------0-----------------------0---0-------------|
E  |---2----------------x-----------------------x---x-------------|


        And so I come to   you, my love,  my heart above my  head.   Though I see   the danger there
f# |----------------------0--------------0----------------------0--0--0------------0------------2--|
C# |----------------------0--------------2----------------------0--0--0------------2------------0--|
Ab |----------------------1--------------1---------------------/3-/3--1------------1------------3--|
E  |----------------------2--------------2---------------------/4-/4--2------------2------------1--|
B  |----------------------2--------------0----------------------0--0--2------------0------------2--|
E  |----------------------2--------------x----------------------x--x--2------------x------------x--|

        if theres a  chance for me then I dont  care
f# |--------------0-----------------------------0------0--------------------------------------------|
C# |--------------0-----------------------------2------3--------------------------------------------|
Ab |--------------1-----------------------------1------1--------------------------------------------|
E  |--------------2-----------------------------2------2--------------------------------------------|
B  |--------------2-----------------------------0------0--------------------------------------------|
E  |--------------2-----------------------------x------x--------------------------------------------|

Verse 2:

        Fools rush in where wise men never go,  But wise men never |
f# |--0------------0------------------------0---2------------------|
C# |--0------------2------------------------0---3------------------|
Ab |--1------------1-----------------------/3---3------------------|
E  |--2------------2-----------------------/4---x------------------|
B  |--2------------0------------------------0---2------------------|
E  |--2------------x------------------------x---x------------------|

fall in love so how are they to know?
----0----------0--------------------0----|
----0----------2--------------------0----|
----1----------1--------------------3----|
----2----------2--------------------2----|
----2----------0--------------------4----|
----2----------x--------------------4----|

                When we met,  I felt my life begin so open up your heart and let this fool rush in
f# |--2------0-------------x---------0---------2------------------0-----------0----------------0--|
C# |--0------0-------------6---------0---------3------------------0-----------2----------------0--|
Ab |--3------1-------------4--------/3---------3------------------1-----------3---------------/3--|
E  |--1------2-------------5--------/4---------x------------------2-----------2---------------/4--|
B  |--2------2-------------x---------0---------2------------------2-----------0----------------0--|
E  |--x------2-------------x---------x---------x------------------2-----------x----------------x--|


==========SOLO==========
(Sorry, couldnt figure out this part) 


Final Verse:

          Fools rush in where wise men never go, But wise men never |
f# |-2--0------------0------------------------0--2------------------|
C# |-0--0------------2------------------------0--3------------------|
Ab |-3--1------------1-----------------------/3--3------------------|
E  |-1--2------------2-----------------------/4--x------------------|
B  |-2--2------------0------------------------0--2------------------|
E  |-x--2------------x------------------------x--x------------------|
     ^|
    (Plays this chord coming out of the solo)|

fall in love so how are they to know?
----0----------0-------------------0-----|
----0----------2-------------------0-----|
----1----------1-------------------3-----|
----2----------2-------------------2-----|
----2----------0-------------------4-----|
----2----------x-------------------4-----|

            When we met, I felt my life begin so open up your heart and let this fool rush in
f# |--2-----0-------------x---------0---------2------------------0-------------0--------------0-----|
C# |--0-----0-------------6---------0---------0------------------0-------------2--------------0-----|
Ab |--3-----1-------------4--------/3---------3------------------1-------------1-------------/3-----|
E  |--1-----2-------------5--------/4---------1------------------2-------------2-------------/4-----|
B  |--2-----2-------------x---------0---------2------------------2-------------0--------------0-----|
E  |--x-----2-------------x---------x---------x------------------2-------------x--------------x-----|



               Just open up your heart and let this fool rush in
f# |--2---------------------------0------------0-----------------0--------------|
C# |--0---------------------------0------------2-----------------0--------------|
Ab |--3---------------------------1------------1----------------/3--------------|
E  |--1---------------------------2------------2----------------/4--------------|
B  |--2---------------------------2------------0-----------------0--------------|
E  |--0---------------------------2------------x-----------------x--------------|

                 So open up your heart and let this fool rush in
f# |--2---------------------------0------------0--------------------------------|
C# |--0---------------------------0------------2--------------------------------|
Ab |--3---------------------------1------------1--------------------------------|
E  |--1---------------------------2------------2--------------------------------|
B  |--2---------------------------2------------0--------------------------------|
E  |--0---------------------------2------------x--------------------------------|
                                                   (Add a little ending if you 
                                                    want or just end on that last chord)



************************************
| /   slide up
| \   slide down
| h   hammer-on
| p   pull-off
| ~   vibrato
| +   harmonic
| x   Mute note
| b   Bend
| pb  Pre-bend
| br  Bend release
| pbr Pre-bend release
| brb Bend release bend
************************************
            
Submit corrections


        Fools Rush In lessons Hard to play? Try these video lessons and learn fast Fools Rush In lessons
        
↑ Back to top | Tablatures and chords for acoustic guitar and electric guitar, ukulele, drums are parodies/interpretations of the original songs. You may use it for private study, scholarship, research or language learning purposes only