» » »

Shawn Mullins - You Mean Everything To Me Tabs

Artists:  A B C D E F G H I J K L M N O P Q R S T U V W X Y Z # 

You Mean Everything To Me Tabs

(ver. 1) Click to play this song!
Shawn Mullins
 Rating:
4/5 (8 votes)
                research.
This file is for personal private use only.  All copyright laws apply.


YOU MEAN EVERYTHING TO ME by Shawn Mullins (Soul's Core)

Intro: x2
|-----3-------3-------3-------3----|
|-------1-------1-------1-------1--|
|---0-------0-------0--------------|
|---------2-------3---------3------|
|-3--------------------------------|
|----------------------------------|

Verse:

|-----3-------3-------3-------3----|<-repeat
|-------1-------1-------1-------1--|
|---0-------0-------0--------------|
|---------2-------3---------3------|
|-3--------------------------------|
|----------------------------------|

|-----3-------3---------------3-------3------------------|
|-------1-------1-----1-----1---1-------1-----1-------3--|
|---0-------0-------0---0-0---------0-------0---0---0--0-|
|---------2-------4---------------3-------2--------------|
|-3-----------------------------------------------2------|
|--------------------------------------------------------|

Chorus:
F C Dm  F G

--------------------------------------------------------------
            
Submit corrections

↑ Back to top | Tablatures and chords for acoustic guitar and electric guitar, ukulele, drums are parodies/interpretations of the original songs. You may use it for private study, scholarship, research or language learning purposes only