Home » S » Shania Twain »

Shania Twain - What Made You Say That? Tabs

Artists:  A B C D E F G H I J K L M N O P Q R S T U V W X Y Z # 

What Made You Say That? Tabs

(ver. 2) Click to play this song!
Shania Twain
 Rating:
4/5 (4 votes)
                (Intro)
Intro
D G A

|---0-0-------|--0-0--------------|
|--3---3-2-3--|-3---3-2-3---------|
|--2----------|-2-----------------|
|--0----------|-0-----------------|
|--0----------|-0-----------------|
|-------------|-------------------|

                                      **** PLAY INTRO TWICE ****
|---2-2-0-0---|--2-2-0-0----------|
|--------3----|-------3-----------|
|--2----------|-2-----------------|
|--2----------|-2-----------------|
|--0----------|-0-----------------|
|-------------|-------------------|


D                A
Maybe tonight I'm gonna tell him how I feel
D                 A
Maybe I'll leave well enough alone
Bm     A        D  D/F     G
Maybe, just maybe, he'll want to be my baby
G    G/F#        Em           A      G
What if he's got plans of his own

D                   A
I'm waiting for the perfect moment
D               A
Looking for the perfect phrase
Bm         A      D  D/F       G
The one I finally choose is simply I love you
G      G/F#       Em               C            A
As the words come out I heard a voice inside me say

                      D
What made you say that
           G                        A
Was it the moonlight, was it the starlight in your eyes
                      D
What made you say that
              G                 A
Have you been listening to your heart
        Bm       A         D   D/F       G    A
It's too late now, you don't want to take it back
B            A
Cause I know love's what made you say that


D G A 2x

|---0-0-------|--0-0--------------|
|--3---3-2-3--|-3---3-2-3---------|
|--2----------|-2-----------------|
|--0----------|-0-----------------|
|--0----------|-0-----------------|
|-------------|-------------------|

                                      **** PLAY INTRO TWICE ****
|---2-2-0-0---|--2-2-0-0----------|
|--------3----|-------3-----------|
|--2----------|-2-----------------|
|--2----------|-2-----------------|
|--0----------|-0-----------------|
|-------------|-------------------|

D                A
I look up to see his reaction
D                  A
And a smile slowly spreads across his face
         Bm               A
He said what took you so long
            D     D/F         G
That's what I've been waiting on
G  G/F#   Em         C             A
I thought you'd take forever and a day


Chorus 2x

Solo:

--------------------------2-2-5-3----------|
--0-2-3-2-3-2-0---------3------------------|
----------------2-2-0--2-------------------|
---------------------4---------------------|
-------------------------------------------|
-------------------------------------------|

--7-7-5-------------2-3-5-6-8-6------------|
-------7-8-7-5-3-2-0-----------------------|
------------------2------------------------|
-------------------------------------------|
-------------------------------------------|
-------------------------------------------|

Eb                              Bb
Was it the moonlight was it the starlight in your eyes
Eb
What made you say that
Bb
Have you been listening to your heart
Eb
What made you say that
            
Submit corrections

↑ Back to top | Tablatures and chords for acoustic guitar and electric guitar, ukulele, drums are parodies/interpretations of the original songs. You may use it for private study, scholarship, research or language learning purposes only