Home » S » Shania Twain »

Shania Twain - Man I Feel Like A Woman Tabs

Artists:  A B C D E F G H I J K L M N O P Q R S T U V W X Y Z # 

Man I Feel Like A Woman Tabs

(ver. 3) Click to play this song!
Shania Twain
 Rating:
4/5 (4 votes)
                "(2)
Man, I Feel Like A Woman (Bassline)
                           

Gtr I Bass - Standard Tuning

  Q=132
 4/4
  Gtr I
  W          W          W          W
|----------|----------|----------|------|
|----------|----------|----------|------|
|----------|----------|----------|------|
|----------|----------|----------|------|


  W          W          W          W
|----------|----------|----------|------|
|----------|----------|----------|------|
|----------|----------|----------|------|
|----------|----------|----------|------|


  W          W          W          W
|----------|----------|----------|------|
|----------|----------|----------|------|
|----------|----------|----------|------|
|----------|----------|----------|------|


  W          W          W          W
|----------|----------|----------|------|
|----------|----------|----------|------|
|----------|----------|----------|------|
|----------|----------|----------|------|


  W          H    E S S S S S S   +Q   E E E E E E   E E E E E E E E
|----------|--------------------|------------------|------------------|
|----------|--------------------|------------------|------------------|
|----------|----------2-0-1---2-|-(2)--2---2---2---|-2---2---2---2----|
|----------|--------------------|------------------|------------------|


  E E E E E E E. S   Q  E. S +E. S S S S S
|------------------|-----------------------|
|-------------0--1-|-2--0------------------|
|-2---2---2--------|-------2-(2)-2-0-1---2-|
|------------------|-----------------------|


  +Q   E E E E E E   E E E E E E E E
|------------------|-----------------|
|------------------|-----------------|
|-(2)--2---2---2---|-2---2---2---2---|
|------------------|-----------------|


  E E E E E E E. S   Q  E. S +E. S S S S S   Q  Q  Q  Q    Q  Q  E E Q
|------------------|-----------------------|-------------|--------------|
|-------------0--1-|-2--0------------------|-------------|--------------|
|-2---2---2--------|-------2-(2)-2-0-1---2-|-0--0--0--0--|-0--0--0---0--|
|------------------|-----------------------|-------------|--------------|


  Q  E E E E E E   Q  Q  Q  E. S   E E E E E E E E   E E E E E E E E
|----------------|-1-------------|-----------------|-----------------|
|----------------|----4----------|-----------------|-----------------|
|-2--2---2---2---|-------6-------|-----------------|-----------------|
|----------------|----------7--0-|-2---2---2---2---|-2---2---2---2---|


  E E E E E E E E   E E E E E E E E   E E E E E S S E S S   E E Q  Q  E E
|-----------------|-----------------|---------------------|---------------|
|-----------------|-----------------|---------------------|-1---1--1------|
|-----------------|-----------------|---------------1---1-|-----------4---|
|-2---2---2---2---|-2---2---2---2---|-2---2---2---2-------|---------------|


  Q  E E E S S E. S   E E E E E E E E   E E E E E E E. S   E E E E E E E E
|-------------------|-----------------|------------------|------------------|
|-------------------|-----------------|------------------|------------------|
|-2--2---2---2-1----|-----------------|------------------|------------------|
|-----------------4-|-2---2---2---2---|-2---2---2---0--1-|-2---2---2---2----|


  E E E E E E E E   E E E E E S S E S S   E E Q  Q  E E   E E E E E E E E
|-----------------|---------------------|---------------|-----------------|
|-----------------|---------------------|-1---1--1------|-----------------|
|-----------------|---------------1---1-|-----------4---|-2---2---2---1---|
|-2---2---2---2---|-2---2---2---2-------|---------------|-----------------|


                              2/4        4/4
  W          +S  S E Q  H      W          H    Q  E S S
|----------|-----------------|----------|---------------|
|----------|-----------------|----------|---------------|
|----------|-----------------|----------|---------------|
|-4--------|-(4)-------------|----------|-------------5-|


  E E E E E E E E   E E E E E S S Q
|-----------------|------------------|
|-----------------|------------------|
|-----------------|---------------5--|
|-7---7---7---7---|-7---7---7---7----|


  E E E E E S S E S S   +E  E E E E E E E
|---------------------|--------------------|
|---------------------|--------------------|
|-7---7---7---7-5-----|--------------------|
|-------------------7-|-(7)---7---7---7----|


  E E E E E E E E   E E E E E E E. S
|-----------------|------------------|
|-----------------|------------------|
|-----------------|-------------5--6-|
|-7---7---7---7---|-7---7---7--------|


  Q  E. S +E. S S S S S   +Q   E E E E E E
|-----------------------|------------------|
|-----------------------|------------------|
|-7--5------------------|------------------|
|-------7-(7)-7-5-6---7-|-(7)--7---7---7---|


  E E E E E E E E   E E E E E E E. S   Q  E. S +E. S S S S S   Q  Q  Q  Q
|-----------------|------------------|-----------------------|-------------|
|-----------------|------------------|-----------------------|-------------|
|-----------------|-------------5--6-|-7--5------------------|-------------|
|-7---7---7---7---|-7---7---7--------|-------7-(7)-7-5-6---7-|-5--5--5--5--|


  Q  Q  E E Q    Q  E E E E E E   Q  Q  Q  E. S   E E E E E E E E
|--------------|----------------|---------------|-----------------|
|--------------|----------------|-6--4----------|-----------------|
|--------------|----------------|-------6-------|-----------------|
|-5--5--5---5--|-7--7---7---7---|----------7--0-|-2---2---2---2---|


  E E E E E E E E   E E E E E E E E   E E E E E E E E   E E E E E S S E S S
|-----------------|-----------------|-----------------|---------------------|
|-----------------|-----------------|-----------------|---------------------|
|-----------------|-----------------|-----------------|---------------1---1-|
|-2---2---2---2---|-2---2---2---2---|-2---2---2---2---|-2---2---2---2-------|


  E E Q  Q  E E   Q  E E E S S E. S   E E E E E E E E   E E E E E E E. S
|---------------|-------------------|-----------------|-------------------|
|-1---1--1------|-------------------|-----------------|-------------------|
|-----------4---|-2--2---2---2-1----|-----------------|-------------------|
|---------------|-----------------4-|-2---2---2---2---|-2---2---2---0--1--|


  E E E E E E E E   E E E E E E E E   E E E E E S S E S S   E E Q  Q  E E
|-----------------|-----------------|---------------------|---------------|
|-----------------|-----------------|---------------------|-1---1--1------|
|-----------------|-----------------|---------------1---1-|-----------4---|
|-2---2---2---2---|-2---2---2---2---|-2---2---2---2-------|---------------|


  E E E E E E E E   W          +S  S E Q  H      W
|-----------------|----------|-----------------|------|
|-----------------|----------|-----------------|------|
|-2---2---2---1---|----------|-----------------|------|
|-----------------|-4--------|-(4)-------------|------|


  Q  Q  Q  Q    Q  Q  Q  Q    Q  E E E E E E   E E E E E. S Q
|-------------|-------------|----------------|-----------------|
|-------2-----|-2--2-----2--|----------------|-----------------|
|----4-----4--|-------2-----|-2--2---2---2---|-2---2---2--0-2--|
|-5-----------|-------------|----------------|-----------------|


  Q  Q  Q  Q    Q  Q  Q  Q    E E E E E E E E   E S S Q  Q  Q
|-------------|-------------|-----------------|-----------------|
|-------2-----|-2-----------|-----------------|-----------------|
|-0--4-----4--|-------2--4--|-2---2---2---2---|-2---2-0---------|
|-------------|----4--------|-----------------|----------2--4---|


  E E E E E E E E   E E E E E S S Q    Q  E E E E E E   Q  E. S Q  Q
|-----------------|------------------|----------------|----------------|
|-----------------|------------------|----------------|-6--4-----------|
|-----------------|--------
"            
Submit corrections

↑ Back to top | Tablatures and chords for acoustic guitar and electric guitar, ukulele, drums are parodies/interpretations of the original songs. You may use it for private study, scholarship, research or language learning purposes only