Home » S » Shania Twain »

Shania Twain - Getcha Good Tabs

Artists:  A B C D E F G H I J K L M N O P Q R S T U V W X Y Z # 

Getcha Good Tabs

(ver. 1) Click to play this song!
Shania Twain
 Rating:
4/5 (4 votes)
                I'm Gonna Getcha Good! - Shania Twain


*play with Capo on 1 to match recording*


These are the main electric guitar riffs and fillers in the song.

b = bend   h = hammer-on   \ = slide down

Intro:

E-------------------
B-------------------
G-------------------
D-------------------
A----O----O-----O---
E--3b--Oh3------5\--  <--slide all the way down
                                                       

                              
E-------------------------------------
B-----------------1----------1-O------  <--(repeat twice)
G-----------Oh2-2---2---Oh2-2-----O---     *on the record these notes
D--------------------2----------------     are played by the digitalized
A-------------------------------------     steel guitar, you can play them
E-------------------------------------     like this on guitar if you want
let's go...


Verse 1:

E----------------------------------------------------------
B----------------------------------------------------------
G----------------------------------------------------------
D----------------------------------------------------------
A-----------------2h3-O----O-------------------O----O------
E-----------------------Oh3------------------3b--Oh3-------
..for the weekend            ...for a night 


E----------------------------------------------------------
B----------------------------------------------------------
G----------------------------------------------------------
D----------------------------------------------------------
A------------2h3-3---O---------------2h3-O-----O-----------
E-----------------Oh3---3h5-5-5-------------Oh3------------
..interested, if I can... 


E----------------------------------------------------------
B----------------------------------------------------------
G----------------------------------------------------------
D----------------------------------------------------------
A--------2h3-O----O--------------2h3-3-O-2h3-O-------------
E--------------Oh3-----------------------------------------
..serious           ...baby I am


E----------------------------------------------------------
B----------------------------------------------------------
G----------------------------------------------------------
D----------------------------------------------------------
A--2h3-3----------------------------O--2h3-3-O-2h3-O-------
E--------------------------3h5-5-Oh3-----------------------
...I'm gonna get me some land                    oh yeah


(Chorus part is just all strummed)


Riff after chorus:

E-------------------------------
B-------------------------------
G-------------------------------
D-------------------------------
A----O----O-----2h3-3---O-------
E--3b--Oh3-----------Oh3-3------

Verse 2:

E----------------------------------------------------------
B----------------------------------------------------------
G----------------------------------------------------------
D----------------------------------------------------------
A-----------2h3-O----O-----------------2h3-3-O-2h3-O-------
E-----------------Oh3-3------------------------------------
..planned it           ...it's gonna be


E------------------------------------------------------------
B------------------------------------------------------------
G------------------------------------------------------------
D------------------------------------------------------------
A---------2h3-3--------------------------O----2h3-3-O-2h3-O--
E----------------------------------3h5-5---------------------
...you're gonna fall in love with me      yeah               



Riff before last chorus (after bridge):

E---------------------------------------------
B---------------------------------------------
G---------------------------------------------
D---------------------------------------------
A----O----O---------------------------O----O--
E--3b--Oh3--------------------------3b--Oh3---
             yeah, yeah, yeah, yeah



The lead part at the end of the last chorus:

E----------------------------------------------------------
B----------------------------------------------------------
G----------------------------------------------------------
D----------------------------------------------------------
A------------5h7-5-3-5------------------------5h7-5-3-1----
E----------------------------------------------------------
I'm gonna getcha...    I'm gonna getcha real good

E-------------------------
B-------------------------
G-------------------------
D-------------------------
A------------5h7-5-3-5----
E-------------------------
Oh you can betcha...
            
Submit corrections

↑ Back to top | Tablatures and chords for acoustic guitar and electric guitar, ukulele, drums are parodies/interpretations of the original songs. You may use it for private study, scholarship, research or language learning purposes only