» » »

Shane Smith The Saints - Little Bird Chords

Artists:  A B C D E F G H I J K L M N O P Q R S T U V W X Y Z # 

Little Bird Chords

(ver. 1) Click to play this song!
Shane Smith The Saints
 Rating:
4.3/5 (24 votes)

 Little Bird lessons Tabs too difficult? Try these video lessons and learn fast
 
                [Intro]

   Em       C          G                  Em       C          G
e|----------0--------|------------------|-------------------|----------3--------|
B|-0-----------3--1--|-0----------------|----------0h1---3--|-----0-------0-----|
G|-------0-----------|------------0---0-|-------0-----------|-0-------0------0--|
D|----2--------------|---0----------0---|----2--------------|----0--0-----------|
A|----------3--------|-----0h2p0--------|----------3--------|-------------------|
E|-0-----------------|-3--------3-------|-0-----------------|-3-----------------|

   Em       C          G                  Em       C          G
e|----------0--------|------------------|-------------------|-------------------|
B|-0-----------3--1--|-0----------------|----------0h1---3--|-------------------|
G|-------0-----------|------------0---0-|-------0-----------|-0-----0-----------|
D|----2--------------|---0----------0---|----2--------------|----0--------------|
A|----------3--------|-----0h2p0--------|----------3--------|-------------------|
E|-0-----------------|-3--------3-------|-0-----------------|-3--------3--------|


[Verse 1]
     Em             C            G
That night in Kerry County had a mind of its own
            Em           C          G
There was a storm in the sea with a name
   Em              C            G
We laughed till we yelled as we ran to the pubs
   Em            C              G
As if somehow it could stop the rain

[Chorus]
         Em              C                   G
You were hard to find, a different kind that I'd never knew
          Em                 C               G
There's a thousand ways that I could say how much
          Em  C              G
I loved you,  but I lost the words
         Em         C           G
You flew off like a little bird

[Instrumental]
|Em  C  |G  |  x2

[Verse 2]
        Em   C           G
So head east outside the city
            Em           C             G
You know my love it runs deep in those parts
    Em           C            G
You came here to say you were livin'
                   Em          C            G
Babe, I'd say it's livin' that got you this far

[Chorus 2]
                Em              C              G
'Cause you were hard to find, a different kind I'd never knew
          Em                 C               G
There's a thousand ways that I could say how much
          Bm  C              G
I loved you,  but I lost the words
                  Em         C           G
I still hear your songs, you little bird

[Bridge]
           Bm          C          G
As long as people sing songs, the stories live on
             D                        C
And ours had highs and lows, but it's real
    C
And I'll be right here
          Em       C        G
While you look for answers alone
            Em               C            G
Go find the life that you've made in your mind
                                     Em           C         G
Tell the truth, I'll probably find a ditch on the road to Damascus
             Bm       C         G
Babe, I'd be lyin' to say I'll be fine

[Chorus]
         Em              C              G
You were hard to find, a different kind I'd never knew
          Em                 C               G
There's a thousand ways that I could say how much
          Bm  C          G
I loved you,  I lost the words
                      C
And now you're just a tattoo of a little bird

[Outro]
|Em  C  |G  |  x12

            
Submit corrections


        Little Bird lessons Hard to play? Try these video lessons and learn fast Little Bird lessons
        
↑ Back to top | Tablatures and chords for acoustic guitar and electric guitar, ukulele, drums are parodies/interpretations of the original songs. You may use it for private study, scholarship, research or language learning purposes only