Home » S » Shane And Shane »

Shane And Shane - Answer Tabs

Artists:  A B C D E F G H I J K L M N O P Q R S T U V W X Y Z # 

Answer Tabs

(ver. 2) Click to play this song!
Shane And Shane
Intro:
E|------------------------------------------------------------------------|
B|--------------------------------3---------------------------------------|
G|--6-7-6-7/6?-6-7-6-7---666660---2--------0h2-2h4/6-7-6-6h7p6-7-7/9-7-6--|
D|-----------------------777770---0?0h2-2h4-------------------------------|
A|-----------------------777770-------------------------------------------|
E|/7---------5--------4-4--------3----------------------------------------|
---


E|----------------------------------------|
B|----------------------------------------|
G|-6h7p6--------------------0h2-2h4/6-7-6-|
D|-------7-7/9-9-9/7-0h2-2h4--------------|
A|----------------------------------------|
E|----------------------------------------|

You can keep doing that or just play the main chords or if there are two
or more guitars like in the song one guitar can improvise which is very
fun with shaneandshane songs as long as you aren?t guessing.

Chorus:
D D9 Bm A G D/F# G A
E|----------------------------|
B|----------------------------|
G|-7--9?-7or6-6--4-------4--6-|
D|-7--7--7----7--5--7----5--7-|
A|-5--4--x----7--5--5----5--7-|
E|-------7----5--3--2----3--5-|

In the chorus, you can change the way the chords are played...but the way
I have it, just makes things interesting and fun, especially with the
pretty big stretches. You could even go as far as to invert some of those
?regular? chords such as the D, A and G and get some pretty cool stuff to
come out.

If you are wondering about that D9, I just saw that there is an added
ninth and seventh and since it is a D chord, I just assumed that the root
was inverted and that the C# was the added 7th. Hopefully that makes
sense.

The main chords to the verse and pre-chorus are exactly the same except
that the strumming in the pre-chorus is a little different. When I saw
shane and shane live, shane would play that intro and then when he sang he
played the main chords. The chords are
Bm A A/G# G D/F# G A
E|----------------------|
B|----------------------|
G|-7--6?-6--4------4--6-|
D|-7--7--7--5--7---5--7-|
A|----7--7--5--5---5--7-|
E|-7--5--4?-3--2---3--5-|

The rest of the song should be easy enough to pick up by ear...
            
Submit corrections

↑ Back to top | Tablatures and chords for acoustic guitar and electric guitar, ukulele, drums are parodies/interpretations of the original songs. You may use it for private study, scholarship, research or language learning purposes only