Home » S » Sham 69 »

Sham 69 - Hurry Up Harry Tabs

Artists:  A B C D E F G H I J K L M N O P Q R S T U V W X Y Z # 

Hurry Up Harry Tabs

(ver. 2) Click to play this song!
Sham 69
Intro : 
E-------------------------: 
B-------------------------: 
G-----------------5-----5-: 
D-77777777-----7--5--5--5-: 
A-77777777-----5--7--5--5-: 
E-55555555-----5-----7----: X2 

E----------------------------------------: 
B----------------------------------------: 
G-55555555-------------------------------: 
D-55555555-5555555555555555-\-77777777---: 
A-33333333-5555555555555555-\-77777777---: 
E----------3333333333333333-\-55555555---: X2 

Come on Come on Huury up Harry Come on 
E--------------------------------------------: 
B--------------------------------------------: 
G-55555555-----------------------7-----7-----: 
D-55555555-55555555-\-77777777---7--7--7--7--: 
A-33333333-55555555-\-77777777---5--7--5--7--: 
E----------33333333-\-55555555------5-----5--: X2 

We're Going Down the Pub 
E----------------------: 
B----------------------: 
G-5555-----------------: 
D-5555-5555-/-77777777-: 
A-3333-5555-/-77777777-: 
E------3333-/-55555555-: X4 after fourth time play :- A,D,A,D 

The song pretty much repeats its, play the the part for the come on come on 
hurry up harry bit over the solo. 

Outro 
E---------------------------: 
B---------------------------: 
G-777777777--7-\-slide down-: 
D-777777777--7-\-slide down-: 
A-555555555--5-\-slide down-: 
E---------------------------:
            
Submit corrections

↑ Back to top | Tablatures and chords for acoustic guitar and electric guitar, ukulele, drums are parodies/interpretations of the original songs. You may use it for private study, scholarship, research or language learning purposes only