» » »

Shakin Stevens - This Ole House Bass

Artists:  A B C D E F G H I J K L M N O P Q R S T U V W X Y Z # 

This Ole House Bass

(ver. 1) Click to play this song!
Shakin Stevens
 Rating:
4.3/5 (21 vote)

 This Ole House lessons Tabs too difficult? Try these video lessons and learn fast
 
                Intro:
G|-----------------------------------------------|
D|-----------------------------------------------|
A|---4--7--4-----4--7--4-----4--7--4-----4--7--4-|
E|-5-----------5-----------5-----------5---------|

Verse 1:
G|-----------------------------4---------4---------6------------|
D|--------4---------4-----4--7------4--7------6--9--------------|
A|---4--7------4--7-----5---------5---------7---------7--5--4---|
E|-5---------5------------------------------------------------7-|

G|-------------------------------------------------4---------4-|
D|--------4---------4---------4---------4-----4--7------4--7---|
A|---4--7------4--7------4--7------4--7-----5---------5--------|
E|-5---------5---------5---------5-----------------------------|

G|--------6---------6------------------------|
D|---6--9------6--9--------------------------|
A|-7---------7---------7--5--4----0--2--3--4-|
E|-----------------------------7-------------|

Chorus:
G|--------4-----------------------------------------6------------|
D|---4--7-----------------------4---------4----6--9--------------|
A|-5---------5--5--3--2----4--7------4--7----7---------7--5--4---|
E|-----------------------5---------5---------------------------7-|

G|----------------------------4--------------------------------|
D|--------4---------4----4--7----------------------4---------4-|
A|---4--7------4--7----5--------5--5--3--2----4--7------4--7---|
E|-5---------5------------------------------5---------5--------|

G|--------6---------6---------------------------------|
D|---6--9------6--9----------------------4------------|
A|-7---------7---------7--5--4------4--7------4--5--6-|
E|-----------------------------7--5---------5---------|

Interlude:
G|--------6---------6--------------------------------|
D|---6--9------6--9----------------------4---------4-|
A|-7---------7---------7--5--4------4--7------4--7---|
E|-----------------------------7--5---------5--------|

Verse 2:
G|-----------------------------4---------4---------6---------6-|
D|--------4---------4-----4--7------4--7------6--9------6--9---|
A|---4--7------4--7-----5---------5---------7---------7--------|
E|-5---------5-------------------------------------------------|

G|----------------------------------------------------4---------4-|
D|-7--5--4-----------------------4---------4-----4--7------4--7---|
A|---------7--7--5--4-------4--7------4--7-----5---------5--------|
E|--------------------7---5---------5-----------------------------|

G|--------6---------6------------------------|
D|---6--9------6--9--------------------------|
A|-7---------7---------7--5--4----0--2--3--4-|
E|-----------------------------7-------------|

Chorus:
G|--------4-----------------------------------------6------------|
D|---4--7-----------------------4---------4----6--9--------------|
A|-5---------5--5--3--2----4--7------4--7----7---------7--5--4---|
E|-----------------------5---------5---------------------------7-|

G|----------------------------4--------------------------------|
D|--------4---------4----4--7----------------------4---------4-|
A|---4--7------4--7----5--------5--5--3--2----4--7------4--7---|
E|-5---------5------------------------------5---------5--------|

G|--------6---------6--------------------------------|
D|---6--9------6--9----------------------4---------4-|
A|-7---------7---------7--5--4------4--7------4--7---|
E|-----------------------------7--5---------5--------|

Interlude 2:
G|--------4--7--4-----------------------------------6------------|
D|---4--7---------7--4---------4---------4-----6--9--------------|
A|-5----------------------4--7------4--7-----7---------7--5--4---|
E|----------------------5---------5----------------------------7-|

G|-----------------------------4---------4---------------------|
D|--------4---------4-----4--7------4--7-----------4---------4-|
A|---4--7------4--7-----5---------5-----------4--7------4--7---|
E|-5---------5------------------------------5---------5--------|

G|--------6---------6--------------------------------|
D|---6--9------6--9----------------------4---------4-|
A|-7---------7---------7--5--4------4--7------4--7---|
E|-----------------------------7--5---------5--------|

Verse 3:
G|-----------------------------4---------4---------6------------|
D|--------4---------4-----4--7------4--7------6--9--------------|
A|---4--7------4--7-----5---------5---------7---------7--5--4---|
E|-5---------5------------------------------------------------7-|

G|-------------------------------------------------4---------4-|
D|--------4---------4---------4---------4-----4--7------4--7---|
A|---4--7------4--7------4--7------4--7-----5---------5--------|
E|-5---------5---------5---------5-----------------------------|

G|--------6---------6------------------------|
D|---6--9------6--9--------------------------|
A|-7---------7---------7--5--4----0--2--3--4-|
E|-----------------------------7-------------|

Chorus:
G|--------4-----------------------------------------6------------|
D|---4--7-----------------------4---------4----6--9--------------|
A|-5---------5--5--3--2----4--7------4--7----7---------7--5--4---|
E|-----------------------5---------5---------------------------7-|

G|----------------------------4--------------------------------|
D|--------4---------4----4--7----------------------4---------4-|
A|---4--7------4--7----5--------5--5--3--2----4--7------4--7---|
E|-5---------5------------------------------5---------5--------|

G|--------6---------6------------------------|
D|---6--9------6--9--------------------------|
A|-7---------7---------7--5--4----0--2--3--4-|
E|-----------------------------7-------------|

Outro:  (Repeat Outro To Fade/End)
G|--------4-----------------------------------------6------------|
D|---4--7-----------------------4---------4----6--9--------------|
A|-5---------5--5--3--2----4--7------4--7----7---------7--5--4---|
E|-----------------------5---------5---------------------------7-|

G|----------------------------4--------------------------------|
D|--------4---------4----4--7----------------------4---------4-|
A|---4--7------4--7----5--------5--5--3--2----4--7------4--7---|
E|-5---------5------------------------------5---------5--------|

G|--------6---------6------------------------|
D|---6--9------6--9--------------------------|
A|-7---------7---------7--5--4----0--2--3--4-|
E|-----------------------------7-------------|

            
Submit corrections


        This Ole House lessons Hard to play? Try these video lessons and learn fast This Ole House lessons
        
↑ Back to top | Tablatures and chords for acoustic guitar and electric guitar, ukulele, drums are parodies/interpretations of the original songs. You may use it for private study, scholarship, research or language learning purposes only