» » »

Shakin Stevens - Marie Marie Bass

Artists:  A B C D E F G H I J K L M N O P Q R S T U V W X Y Z # 

Marie Marie Bass

(ver. 1) Click to play this song!
Shakin Stevens
 Rating:
4.3/5 (22 votes)

 Marie Marie lessons Tabs too difficult? Try these video lessons and learn fast
 
                Verse 1:
 Marie Marie...
G|------------------------------------------------------------6---------6-|
D|------------------4----------4---------4---------4-----6--9------6--9---|
A|-------------4--7-------4--7------4--7------4--7-----7---------7--------|
E|-----------5----------5---------5---------5-----------------------------|

G|--------4----------6---------------------|
D|---4--7-------6--9-----------4---------4-|
A|-5----------7-----------4--7------4--7---|
E|----------------------5---------5--------|

Verse 2:
G|--------------------------------------------------6---------6-|
D|--------4----------4---------4---------4-----6--9------6--9---|
A|---4--7-------4--7------4--7------4--7-----7---------7--------|
E|-5----------5---------5---------5-----------------------------|

G|--------4----------6---------------------|
D|---4--7-------6--9-----------4---------4-|
A|-5----------7-----------4--7------4--7---|
E|----------------------5---------5--------|

Bridge:                              (Play This x2)
G|----------------------------------------------|
D|----------------------------------------------|
A|-7--5---5----7--5---5----7--5---5----7--5---5-|
E|------7-----------7-----------7-----------7---|

Verse 3:
G|--------------------------------------------------6---------6-|
D|--------4----------4---------4---------4-----6--9------6--9---|
A|---4--7-------4--7------4--7------4--7-----7---------7--------|
E|-5----------5---------5---------5-----------------------------|

G|--------4----------6------------------------|
D|---4--7-------6--9-----------4----7--4------|
A|-5----------7-----------4--7-----------7--4-|
E|----------------------5---------------------|

Solo:
G|--------------------------------------------------6---------6-|
D|--------4----------4-------------------------6--9------6--9---|
A|---4--7-------4--7-------------------------7---------7--------|
E|-5----------5---------5---5---5---5--5-5----------------------|

G|--------4----------6---------------------|
D|---4--7-------6--9-----------4---------4-|
A|-5----------7-----------4--7------4--7---|
E|----------------------5---------5--------|


Verse 4:
G|--------------------------------------------------6---------6-|
D|--------4----------4---------4---------4-----6--9------6--9---|
A|---4--7-------4--7------4--7------4--7-----7---------7--------|
E|-5----------5---------5---------5-----------------------------|

G|--------4----------6---------------------|
D|---4--7-------6--9-----------4---------4-|
A|-5----------7-----------4--7------4--7---|
E|----------------------5---------5--------|

Verse 5:
G|--------------------------------------------------6---------6-|
D|--------4----------4---------4---------4-----6--9------6--9---|
A|---4--7-------4--7------4--7------4--7-----7---------7--------|
E|-5----------5---------5---------5-----------------------------|

G|--------4----------6---------------------|
D|---4--7-------6--9-----------4---------4-|
A|-5----------7-----------4--7------4--7---|
E|----------------------5---------5--------|

Bridge:                              (Play This x2)
G|----------------------------------------------|
D|----------------------------------------------|
A|-7--5---5----7--5---5----7--5---5----7--5---5-|
E|------7-----------7-----------7-----------7---|

Verse 6:
G|--------------------------------------------------6---------6-|
D|--------4----------4---------4---------4-----6--9------6--9---|
A|---4--7-------4--7------4--7------4--7-----7---------7--------|
E|-5----------5---------5---------5-----------------------------|

                                               (Pause)
G|--------4----------6--------------------------|
D|---4--7-------6--9-----------4----------------|
A|-5----------7-----------4--7------------------|
E|----------------------5---------5--5--5--5--6-|

Verse 7:  (Key Change)
G|---------------------------------------------------7----------7-|
D|--------5----------5---------5---------5-----7--10------7--10---|
A|---5--8-------5--8------5--8------5--8-----8---------8----------|
E|-6----------6---------6---------6-------------------------------|

G|--------5-----------7--------------------|
D|---5--8-------7--10-----------5--------5-|
A|-6----------8-----------5--8------5--8---|
E|----------------------6---------6--------|

Outro:                             (Repeat Outro To Fade/End)
G|--------5-----------7--------------------|
D|---5--8-------7--10-----------5--------5-|
A|-6----------8-----------5--8------5--8---|
E|----------------------6---------6--------|

            
Submit corrections


        Marie Marie lessons Hard to play? Try these video lessons and learn fast Marie Marie lessons
        
↑ Back to top | Tablatures and chords for acoustic guitar and electric guitar, ukulele, drums are parodies/interpretations of the original songs. You may use it for private study, scholarship, research or language learning purposes only