» » »

Shaka Ponk - Wataman Tabs

Artists:  A B C D E F G H I J K L M N O P Q R S T U V W X Y Z # 

Wataman Tabs

(ver. 1) Click to play this song!
Shaka Ponk
 Rating:
4.3/5 (12 votes)

 Wataman lessons Tabs too difficult? Try these video lessons and learn fast
 
                B |-------------------------12~--------11~-----------------------------------|
F#|-------9~-----------------------------------------------------------------|
D |--------------------------------------------------------------------------|
A |--------------------------------------------------------------------------|
E |--------------------------------------------------------------------------|
B |--------------------------------------------------------------------------|


B |--------------------------------------------------------------------------|
F#|--------------------------------------------------------------------------|
D |--------------------------------------------------------------------------|
A |-------------------------------------------------------------------5--8~--|
E |-----------------------------------------------------------------7--------|
B |--5-5-5-5-5-5-5-5-5-5-5-5-5-5-5-5-5-5-5-5-5-5-5-5-5-5-5-5-5-5-5-----------|


B |--------------------------------------------------------------------------|
F#|--------------------------------------------------------------------------|
D |------------------------------------------------------------------------0-|
A |-------------------------------------------------------------------8-7~---|
E |-----------------------------------------------------------------7--------|
B |--5-5-5-5-5-5-5-5-5-5-5-5-5-5-5-5-5-5-5-5-5-5-5-5-5-5-5-5-5-5-5-----------|


B |--------------------------------------------------------------------------|
F#|--------------------------------------------------------------------------|
D |--------------------------------------------------------------------------|
A |------------------------------------------------------------------5-8-7-5-|
E |----------------------------------------------------------------7---------|
B |--5-5-5-5-5-5-5-5-5-5-5-5-5-5-5-5-5-5-5-5-5-5-5-5-5-5-5-5-5-5-5-----------|


B |--------------------------------------------------------------------------|
F#|--------------------------------------------------------------------------|
D |------------------------------------------------------------------------0-|
A |-------------------------------------------------------------------8-7~---|
E |-----------------------------------------------------------------7--------|
B |--5-5-5-5-5-5-5-5-5-5-5-5-5-5-5-5-5-5-5-5-5-5-5-5-5-5-5-5-5-5-5-----------|


B |--------------------------------------------------------------------------|
F#|--------------------------------------------------------------------------|
D |--------------------------------------------------------------------------|
A |------------------------------------------------------------------5-8-7-5-|
E |----------------------------------------------------------------7---------|
B |--5-5-5-5-5-5-5-5-5-5-5-5-5-5-5-5-5-5-5-5-5-5-5-5-5-5-5-5-5-5-5-----------|


B |--------------------------------------------------------------------------|
F#|--------------------------------------------------------------------------|
D |--------------------------------------------------------------------------|
A |--------------------------------------------------------------------------|
E |-5-5-5-5-5-5-5-5-5-5-5-5-5-5-5-5-5-5-3-3-3-3-3-3-3-3-3-3-3-3-3-3-3-3-3-3--|
B |--------------------------------------------------------------------------|


B |--------------------------------------------------------------------------|
F#|--------------------------------------------------------------------------|
D |--------------------------------------------------------------------------|
A |-------------------------------------------------------------------8-7~---|
E |-----------------------------------------------------------------7--------|
B |--5-5-5-5-5-5-5-5-5-5-5-5-5-5-5-5-5-5-5-5-5-5-5-5-5-5-5-5-5-5-5-----------|


B |--------------------------------------------------------------------------|
F#|--------------------------------------------------------------------------|
D |--------------------------------------------------------------------------|
A |-------------------------------------------------------------------8-7~---|
E |-----------------------------------------------------------------7--------|
B |--5-5-5-5-5-5-5-5-5-5-5-5-5-5-5-5-5-5-5-5-5-5-5-5-5-5-5-5-5-5-5-----------|


B |--------------------------------------------------------------------------|
F#|--------------------------------------------------------------------------|
D |--9-8-7--9-8-7--9-8-7-----------------------------------------------------|
A |--9-8-7--9-8-7--9-8-7--7--------------------------------------------------|
E |--7-6-5--7-6-5--7-6-5--7--------------------------------------------------|
B |-----------------------5--------------------------------------------------|

Hey Man ! Wataman !!!

B |--------------------------------------------------------------------------|
F#|--------------------------------------------------------------------------|
D |-----------------5-5-5-5-5-5-5-5------------------8-8-8-8---7--6----------|
A |-7-7-7-7-7-7-7-7-5-5-5-5-5-5-5-5-5-5-5-5-5-5-5-5--8-8-8-8---7--6----------|
E |-7-7-7-7-7-7-7-7-3-3-3-3-3-3-3-3-5-5-5-5-5-5-5-5--6-6-6-6---5--4----------|
B |-5-5-5-5-5-5-5-5-----------------3-3-3-3-3-3-3-3--------------------------|


B |--------------------------------------------------------------------------|
F#|--------------------------------------------------------------------------|
D |-----------------5-5-5-5-5-5-5-5------------------8-8-8-8---7--6----------|
A |-7-7-7-7-7-7-7-7-5-5-5-5-5-5-5-5-5-5-5-5-5-5-5-5--8-8-8-8---7--6----------|
E |-7-7-7-7-7-7-7-7-3-3-3-3-3-3-3-3-5-5-5-5-5-5-5-5--6-6-6-6---5--4----------|
B |-5-5-5-5-5-5-5-5-----------------3-3-3-3-3-3-3-3--------------------------|


B |--------------------------------------------------------------------------|
F#|--------------------------------------------------------------------------|
D |-----------------5-5-5-5-5-5-5-5------------------------------------------|
A |-7-7-7-7-7-7-7-7-5-5-5-5-5-5-5-5------------------------------------------|
E |-7-7-7-7-7-7-7-7-3-3-3-3-3-3-3-3------------------------------------------|
B |-5-5-5-5-5-5-5-5-----------------1-1-1-1-1-1-1-1-1-1-1-1-1-1-1-1-1-1-1-1--|


B |--------------------------------------------------------------------------|
F#|--------------------------------------------------------------------------|
D |--------------------------------------------------------------------------|
A |------------------------------------------------------------------5-8-7-5-|
E |----------------------------------------------------------------7---------|
B |--5-5-5-5-5-5-5-5-5-5-5-5-5-5-5-5-5-5-5-5-5-5-5-5-5-5-5-5-5-5-5-----------|


B |--------------------------------------------------------------------------|
F#|--------------------------------------------------------------------------|
D |------------------------------------------------------------------------0-|
A |-------------------------------------------------------------------8-7~---|
E |-----------------------------------------------------------------7--------|
B |--5-5-5-5-5-5-5-5-5-5-5-5-5-5-5-5-5-5-5-5-5-5-5-5-5-5-5-5-5-5-5-----------|


B |--------------------------------------------------------------------------|
F#|--------------------------------------------------------------------------|
D |--------------------------------------------------------------------------|
A |------------------------------------------------------------------5-8-7-5-|
E |----------------------------------------------------------------7---------|
B |--5-5-5-5-5-5-5-5-5-5-5-5-5-5-5-5-5-5-5-5-5-5-5-5-5-5-5-5-5-5-5-----------|


B |--------------------------------------------------------------------------|
F#|--------------------------------------------------------------------------|
D |------------------------------------------------------------------------0-|
A |-------------------------------------------------------------------8-7~---|
E |-----------------------------------------------------------------7--------|
B |--5-5-5-5-5-5-5-5-5-5-5-5-5-5-5-5-5-5-5-5-5-5-5-5-5-5-5-5-5-5-5-----------|


B |--------------------------------------------------------------------------|
F#|--------------------------------------------------------------------------|
D |--------------------------------------------------------------------------|
A |-------------------------------------------------------------------8-7~---|
E |-----------------------------------------------------------------7--------|
B |--5-5-5-5-5-5-5-5-5-5-5-5-5-5-5-5-5-5-5-5-5-5-5-5-5-5-5-5-5-5-5-----------|


B |--------------------------------------------------------------------------|
F#|--------------------------------------------------------------------------|
D |--------------------------------------------------------------------------|
A |-------------------------------------------------------------------8-7~---|
E |-----------------------------------------------------------------7--------|
B |--5-5-5-5-5-5-5-5-5-5-5-5-5-5-5-5-5-5-5-5-5-5-5-5-5-5-5-5-5-5-5-----------|


B |-----------------------------------------------------------------------------------|
F#|-----------------------------------------------------------------------------------|
D |-9-8-7--9-8-7--9-8-7------------------5-5-5-5-5-5-5-5-----------------8-8-8-8-7--6-|
A |-9-8-7--9-8-7--9-8-7--7-7-7-7-7-7-7-7-5-5-5-5-5-5-5-5-5-5-5-5-5-5-5-5-8-8-8-8-7--6-|
E |-7-6-5--7-6-5--7-6-5--7-7-7-7-7-7-7-7-3-3-3-3-3-3-3-3-5-5-5-5-5-5-5-5-6-6-6-6-5--4-|
B |----------------------5-5-5-5-5-5-5-5-----------------3-3-3-3-3-3-3-3--------------|


B |--------------------------------------------------------------------------|
F#|--------------------------------------------------------------------------|
D |-----------------5-5-5-5-5-5-5-5------------------8-8-8-8---7--6----------|
A |-7-7-7-7-7-7-7-7-5-5-5-5-5-5-5-5-5-5-5-5-5-5-5-5--8-8-8-8---7--6----------|
E |-7-7-7-7-7-7-7-7-3-3-3-3-3-3-3-3-5-5-5-5-5-5-5-5--6-6-6-6---5--4----------|
B |-5-5-5-5-5-5-5-5-----------------3-3-3-3-3-3-3-3--------------------------|


B |--------------------------------------------------------------------------|
F#|--------------------------------------------------------------------------|
D |-----------------5-5-5-5-5-5-5-5------------------------------------------|
A |-7-7-7-7-7-7-7-7-5-5-5-5-5-5-5-5------------------------------------------|
E |-7-7-7-7-7-7-7-7-3-3-3-3-3-3-3-3------------------------------------------|
B |-5-5-5-5-5-5-5-5-----------------1-1-1-1-1-1-1-1-1-1-1-1-1-1-1-1-1-1-1-1--|


B |--------------------------------------------------------------------------|
F#|--------------------------------------------------------------------------|
D |--5---5---5---5---5-------5---5---5---5---5-------5---5---5---5---5-------|
A |--5---5---5---5---5-7-7-7-5---5---5---5---5-7-7-7-5---5---5---5---5-7-7-7-|
E |--3-0-3-0-3-0-3-0-3-7-7-7-3-0-3-0-3-0-3-0-3-7-7-7-3-0-3-0-3-0-3-0-3-7-7-7-|
B |--------------------5-5-5-------------------5-5-5-------------------5-5-5-|


B |--------------------------------------------------------------------------|
F#|--------------------------------------------------------------------------|
D |--5---5---5---5---5-7-7-7-5---5---5---5---5-------5---5---5---5---5-------|
A |--5---5---5---5---5-7-7-7-5---5---5---5---5-7-7-7-5---5---5---5---5-7-7-7-|
E |--3-0-3-0-3-0-3-0-3-5-5-5-3-0-3-0-3-0-3-0-3-7-7-7-3-0-3-0-3-0-3-0-3-7-7-7-|
B |--------------------------------------------5-5-5-------------------5-5-5-|


B |--------------------------------------------------------------------------|
F#|--------------------------------------------------------------------------|
D |--5---5---5---5---5-------5---5---5---5---5-------5---5---5---5---5-7-7-7-|
A |--5---5---5---5---5-7-7-7-5---5---5---5---5-7-7-7-5---5---5---5---5-7-7-7-|
E |--3-0-3-0-3-0-3-0-3-7-7-7-3-0-3-0-3-0-3-0-3-7-7-7-3-0-3-0-3-0-3-0-3-5-5-5-|
B |--------------------5-5-5-------------------5-5-5-------------------------|


B |--------------------------------------------------------------------------|
F#|--------------------------------------------------------------------------|
D |--5---5---5---5---5-------5---5---5---5---5-------5---5---5---5---5-------|
A |--5---5---5---5---5-7-7-7-5---5---5---5---5-7-7-7-5---5---5---5---5-7-7-7-|
E |--3-0-3-0-3-0-3-0-3-7-7-7-3-0-3-0-3-0-3-0-3-7-7-7-3-0-3-0-3-0-3-0-3-7-7-7-|
B |--------------------5-5-5-------------------5-5-5-------------------5-5-5-|


B |--------------------------------------------------------------------------|
F#|--------------------------------------------------------------------------|
D |--5---5---5---5---5-7-7-7-----5-8-7-5--5---5---5---5---5-7-7-7------------|
A |--5---5---5---5---5-7-7-7---7-5-8-7-5--5---5---5---5---5-7-7-7------------|
E |--3-0-3-0-3-0-3-0-3-5-5-5---7-3-6-5-3--3-0-3-0-3-0-3-0-3-5-5-5------------|
B |----------------------------5---------------------------------------------|


B |--------------------------------------------------------------------------|
F#|--------------------------------------------------------------------------|
D |----5-8-7-5----10-10-10-10-10-10-10-10---9--9--9--------------------------|
A |--7-5-8-7-5----10-10-10-10-10-10-10-10---9--9--9--------------------------|
E |--7-3-6-5-3----8--8--8--8--8--8--8--8----7--7--7--------------------------|
B |--5-----------------------------------------------------------------------|


B |--------------------------------------------------------------------------|
F#|--------------------------------------------------------------------------|
D |-9-9-9-8-7--9-9-9-8-7--9-9-9-8-7------------------------------------------|
A |-9-9-9-8-7--9-9-9-8-7--9-9-9-8-7------------------------------------------|
E |-7-7-7-6-5--7-7-7-6-5--7-7-7-6-5--7-7-7-7-7-7-7-7-7-7-7-7-7-7-7-7-7-7-7-7-|
B |--------------------------------------------------------------------------|


B |--------------------------------------------------------------------------|
F#|--------------------------------------------------------------------------|
D |--------------------------------------------------------------------------|
A |------------------------------------------------------------------5-8-7-5-|
E |----------------------------------------------------------------7---------|
B |--5-5-5-5-5-5-5-5-5-5-5-5-5-5-5-5-5-5-5-5-5-5-5-5-5-5-5-5-5-5-5-----------|


B |--------------------------------------------------------------------------|
F#|--------------------------------------------------------------------------|
D |------------------------------------------------------------------------0-|
A |-------------------------------------------------------------------8-7~---|
E |-----------------------------------------------------------------7--------|
B |--5-5-5-5-5-5-5-5-5-5-5-5-5-5-5-5-5-5-5-5-5-5-5-5-5-5-5-5-5-5-5-----------|


B |--------------------------------------------------------------------------|
F#|--------------------------------------------------------------------------|
D |--------------------------------------------------------------------------|
A |------------------------------------------------------------------5-8-7-5-|
E |----------------------------------------------------------------7---------|
B |--5-5-5-5-5-5-5-5-5-5-5-5-5-5-5-5-5-5-5-5-5-5-5-5-5-5-5-5-5-5-5-----------|


B |--------------------------------------------------------------------------|
F#|--------------------------------------------------------------------------|
D |--------------------------------------------------------------------------|
A |--------------------------------------------------------------------------|
E |-5-5-5-5-5-5-5-5-5-5-5-5-5-5-5-5-5-5-3-3-3-3-3-3-3-3-3-3-3-3-3-3-3-3-3-3--|
B |--------------------------------------------------------------------------|


            
Submit corrections


        Wataman lessons Hard to play? Try these video lessons and learn fast Wataman lessons
        
↑ Back to top | Tablatures and chords for acoustic guitar and electric guitar, ukulele, drums are parodies/interpretations of the original songs. You may use it for private study, scholarship, research or language learning purposes only