» » »

Shaka Ponk - Mysterious Ways Tabs

Artists:  A B C D E F G H I J K L M N O P Q R S T U V W X Y Z # 

Mysterious Ways Tabs

(ver. 1) Click to play this song!
Shaka Ponk
 Rating:
4.3/5 (15 votes)

 Mysterious Ways lessons Tabs too difficult? Try these video lessons and learn fast
 
                This part (2 lines) X2 (light)
E|--------------------------------------------------------------------------|
B|--------------------------------------------------------------------------|
G|--------------------------------------------------------------------------|
D|--2---2---2---2---3---3---3---3---4---4---4---4---3---3---3---3-----------|
A|----0---0---0---0---0---0---0---0---0---0---0---0---0---0---0---0---------|
E|--------------------------------------------------------------------------|

E|---------------------------------0----1-------------------0---------------|
B|---------------------------------3----3-------------------3---------------|
G|---------------------------------2----2--------5----------2---------------|
D|--2---2---3---3---4---4----------0----0--------5---5------0---------------|
A|----0---0---0---0---0---0----------------------3---5----------------------|
E|---------------------------------------------------3----------------------|


E|--------------------------------------------------------------------------|
B|--------------------------------------------------------------------------|
G|--------------------------------------------------------------------------|
D|---2-2-2-2-2-2-2-2--5-5-5-5-5-5-5-5--4-4-4-4-4-4-4-4--3-3-3-3--5-5-5-5----|
A|---0-0-0-0-0-0-0-0--3-3-3-3-3-3-3-3--2-2-2-2-2-2-2-2--1-1-1-1--3-3-3-3----|
E|--------------------------------------------------------------------------|

E|--------------------------------------------------------------------------|
B|--------------------------------------------------------------------------|
G|--------------------------------------------------------------------------|
D|---2-2-2-2-2-2-2-2--5-5-5-5-5-5-5-5-------------------3-3-3-3-5-5-5-5-----|
A|---0-0-0-0-0-0-0-0--3-3-3-3-3-3-3-3--5-5-5-5-5-5-5-5--1-1-1-1-3-3-3-3-----|
E|-------------------------------------3-3-3-3-3-3-3-3----------------------|


E|-------------------------------------------0------------------------------|
B|-------------------------------------------3------------------------------|
G|-------------------------------------------2------------------------------|
D|-----2-----2-----2-----2-3-2---2-----2-----0------------------------------|
A|---0---0-----0-----0---------0---0-----0----------------------------------|
E|---------3-----2-----1-------------3--------------------------------------|


E|--------------------------------------------------------------------------|
B|--------------------------------------------------------------------------|
G|--------------------------------------------------------------------------|
D|--2---2---2---2---3---3---3---3---4---4---4---4---3---3---3---3-----------|
A|----0---0---0---0---0---0---0---0---0---0---0---0---0---0---0---0---------|
E|--------------------------------------------------------------------------|

E|---------------------------------0------------------------0---------------|
B|---------------------------------3------------------------3---------------|
G|---------------------------------2-------------5----------2---------------|
D|--2---2---3---3---4---4----------0-------------5---5------0---------------|
A|----0---0---0---0---0---0----------------------3---5----------------------|
E|---------------------------------------------------3----------------------|

(PM or light) X2
E|--------------------------------------------------------------------------|
B|--------------------------------------------------------------------------|
G|--------------------------------------------------------------------------|
D|---2-2-2-2-2-2-2-2--5-5-5-5-5-5-5-5--4-4-4-4-4-4-4-4--3-3-3-3-5-5-5-5-----|
A|---0-0-0-0-0-0-0-0--3-3-3-3-3-3-3-3--2-2-2-2-2-2-2-2--1-1-1-1-3-3-3-3-----|
E|--------------------------------------------------------------------------|


E|-----------------------------------------------------------0-----------0--|
B|-----------------------------------------------------------3-----------3--|
G|-----------------------------------------------------------2----5------2--|
D|--2---2---2---2---3---3---3---3---4---4---3---3---4---4----0----5---5--0--|
A|----0---0---0---0---0---0---0---0---0---0---0---0---0-----------3---5-----|
E|--------------------------------------------------------------------3-----|


This part X8
E|--------------------------------------------------------------------------|
B|--------------------------------------------------------------------------|
G|--------------------------------------------------------------------------|
D|---2-2-2-2-2-2-2-2--5-5-5-5-5-5-5-5---------------------------------------|
A|---0-0-0-0-0-0-0-0--3-3-3-3-3-3-3-3--5-5-5-5-5-5-5-5--3-3-3-3-5-5-5-5-----|
E|-------------------------------------3-3-3-3-3-3-3-3--1-1-1-1-3-3-3-3-----|



E|--------------------------------------------------------------------------|
B|--------------------------------------------------------------------------|
G|-------------------------------------------------------------------------2|
D|---2-----2-----2-----2-3-2---2-----2-----2-----2-3-2---2-----2-----2-----2|
A|-0---0-----0-----0---------0---0-----0-----0---------0---0-----0-----0---0|
E|-------3-----2-----1-------------3-----2-----1-------------3-----2-----1--|            
Submit corrections


        Mysterious Ways lessons Hard to play? Try these video lessons and learn fast Mysterious Ways lessons
        
↑ Back to top | Tablatures and chords for acoustic guitar and electric guitar, ukulele, drums are parodies/interpretations of the original songs. You may use it for private study, scholarship, research or language learning purposes only