Home » S » Shades Apart »

Shades Apart - Valentine Tabs

Artists:  A B C D E F G H I J K L M N O P Q R S T U V W X Y Z # 

Valentine Tabs

(ver. 3) Click to play this song!
Shades Apart
Shades Apart- "Valentine"
  
             -ZONE88 Computer Shop-
	149 A Bonifacio St. Baguio City
	     Cuesta Bldg. Suite 205
	     (above Johnnies Water)

Intro:
E|--8---8-------|--8---8-------|--8---8---8---8----|
B|----9---9-----|----9---9-----|----9---9---9---9--|
G|--------------|--------------|--6----------------|
D|--6-----------|--8-----------|-------------------|
A|--------------|--------------|-------------------|
E|--------------|--------------|-------------------|
Repeat



Verse:
Guitar 1: (distortion)
E|------------|-------------|---------------------|
B|------------|-------------|---------------------|
G|------5-----|------5------|------5---5---5------|
D|----6---6---|----6---6----|----6---6---6---6----|
A|------------|-------------|--4------------------|
e|--4---------|--6----------|---------------------|


Guitar 2:
E|--8---8-------|--8---8-------|--8---8---8---8----|
B|----9---9-----|----9---9-----|----9---9---9---9--|
G|--------------|--------------|--6----------------|
D|--6-----------|--8-----------|-------------------|
A|--------------|--------------|-------------------|
E|--------------|--------------|-------------------|


Refrain: "The sun is shining...

First Part
E|-----|-----|-----|
B|-----|-----|-----|
G|-----|-----|--3--|
D|--4--|--3--|--3--|
A|--4--|--3--|--1--|
e|--2--|--1--|-----|

Second Part
E|-----|-----|-----|
B|-----|-----|-----|
G|-----|-----|--8--|
D|--4--|--3--|--8--|
A|--4--|--3--|--6--|
e|--2--|--1--|-----|



Chorus: "Valentine, say the line..."
Each power chord is right before he says something
E|-----|-----|-----|
B|-----|-----|-----|
G|-----|-----|--9--|
D|--6--|--3--|--9--|
A|--6--|--3--|--7--|
e|--4--|--1--|-----|


Solo
|----------------------------------|---------------------------|------------------------------------|
|----------------------------------|----------9----------------|-----------------9------------------|
|--5--5--5--6--8--5----------------|-5--6--8-------------------|-5/6--6--6--5/6-----6--6--6/5-------|
|--------------------6--6--6--8--6-|-------------6--6--5-------|-------------------------------8--6-|
|----------------------------------|----------------------8--6-|------------------------------------|
|----------------------------------|---------------------------|------------------------------------|
Repeat once
Una				 
|---------------------------------------|-----------------------16------15------13-|
|13--13--14--16--13---------------------|-13/14--14--14--13/14------14------14-----|
|--------------------13--13--13--15--13-|------------------------------------------|
|---------------------------------------|------------------------------------------|
|---------------------------------------|------------------------------------------|
|---------------------------------------|------------------------------------------|

Pangalawa
|---------------------------------------|-------------------|
|13--13--14--16--13---------------------|-------------------|
|--------------------13--13--13--15--13-|--13/10--6--5--5/6-|
|---------------------------------------|--13/10--6---------|
|---------------------------------------|-------------------|
|---------------------------------------|-------------------|
Repeat once					Let Ring


Bridge: (He repeats, "Just leave it all behind")
|---8----8-9------|
|------9------9---|
|-----------------|
|-----------------|
|-----------------|
|-----------------|
Repeat many times
            
Submit corrections

↑ Back to top | Tablatures and chords for acoustic guitar and electric guitar, ukulele, drums are parodies/interpretations of the original songs. You may use it for private study, scholarship, research or language learning purposes only