» » »

Sex Pistols - New York Tabs

Artists:  A B C D E F G H I J K L M N O P Q R S T U V W X Y Z # 

New York Tabs

(ver. 3) Click to play this song!
Sex Pistols
 Rating:
4/5 (4 votes)

 New York lessons Tabs too difficult? Try these video lessons and learn fast
 
                ----------------------------------------------------------------------------
                             New York - Sex Pistols
----------------------------------------------------------------------------


Tuning: Standard

e|---12------------12--12--------12--12--------12--12--------12--12--------|
B|---12------------12--12--------12--12--------12--12--------12--12--------|
G|-----------14fb----------14fb----------14fb----------14fb----------------|
D|-------------------------------------------------------------------------|
A|-------------------------------------------------------------------------|
E|-------------------------------------------------------------------------|

e|---------12--12--------12--12--------12--12--------12--12--------12--12--|
B|---------12--12--------12--12--------12--12--------12--12--------12--12--|
G|---14fb----------14fb----------14fb-----------14fb----------14fb---------|
D|-------------------------------------------------------------------------|
A|-------------------------------------------------------------------------|
E|-------------------------------------------------------------------------|

e|---------12---------------12---------12---------12---------12---------12-|
B|---------12--------12h14--12--12h14--12--12h14--12--12h14--12--12h14--12-|
G|---14fb------14fb--------------------------------------------------------|
D|-------------------------------------------------------------------------|
A|-------------------------------------------------------------------------|
E|-------------------------------------------------------------------------|

e|----------12--------12---------12--------12--------12--------12--------12|
B|---12h14--12--12h14-12--12h14--12--12h14-12--12h14-12--12h14-12--12h14-12|
G|-------------------------------------------------------------------------|
D|-------------------------------------------------------------------------|
A|-------------------------------------------------------------------------|
E|-------------------------------------------------------------------------|

e|----------12---------12---------12---------------------------------------|
B|---12h14--12--12h14--12--12h14--12--12----12----12----12----12----12-----|
G|------------------------------------14fb--14fb--14fb--14fb--14fb--14fb---|
D|-------------------------------------------------------------------------|
A|-------------------------------------------------------------------------|
E|-------------------------------------------------------------------------|

e|-------------------------------------------------------------------------|
B|---12----12----12------10----9-----7----7-----7--------------------------|
G|---14fb--14fb--14fb+r--12fb--11fb--9fb--7-----7--------------------------|
D|-------------------------------------------9-----9--7--9~~~--------------|
A|-------------------------------------------------------------\\\-Pick----|
E|-------------------------------------------------------------\\\-Scr*pe--|

End On b5 power chord

No one else tabbed out the outro for this song so I thought I'd give it a shot..It 
pretty accurate.  Send a Message to my user account if you have comments or corrections.

| h  hammer-on
| fb full-bend
| ~  vibrato
| +  and
| r release
            
Submit corrections


        New York lessons Hard to play? Try these video lessons and learn fast New York lessons
        
↑ Back to top | Tablatures and chords for acoustic guitar and electric guitar, ukulele, drums are parodies/interpretations of the original songs. You may use it for private study, scholarship, research or language learning purposes only