Home » S » Sex Pistols »

Sex Pistols - God Save The Queen Tabs

Artists:  A B C D E F G H I J K L M N O P Q R S T U V W X Y Z # 

God Save The Queen Tabs

(ver. 3) Click to play this song!
Sex Pistols
 Rating:
4/5 (4 votes)
                (Intro)
this is just the intro, but its
pretty cool anyways.
it looks hard, but it's really pretty easy

standard tuning
/ slide


-7/9-9-9--9-9-9--7/9-9-9--9-9-9-7/9-9-9-7/9-9-9-7/9-9-9-7/9-9-9
-7/9-9-9--9-9-9--7/9-9-9--9-9-9-7/9-9-9-7/9-9-9-7/9-9-9-7/9-9-9
-5/7-7-7--7-7-7--5/7-7-7--7-7-7-5/7-7-7-5/7-7-7-5/7-7-7-5/7-7-7

--------------------------------------------------
--------------------------------------------------
-----------------9--8-9-8-----------------9--8-9-8
-9-9-9-9-9-9-9-9-9--8-9-8-9-9-9-9-9-9-9-9-9--8-9-8
-9-9-9-9-9-9-9-9-7--6-7-6-9-9-9-9-9-9-9-9-7--6-7-6
-7-7-7-7-7-7-7-7----------7-7-7-7-7-7-7-7---------

-------------------------------------------------
-------------------------------------------------
-----------------9--8-9-8------------------------
-9-9-9-9-9-9-9-9-9--8-9-8-7/9-9-9-7/9-9-9-7/9-9-9
-9-9-9-9-9-9-9-9-7--6-7-6-7/9-9-9-7/9-9-9-7/9-9-9
-7-7-7-7-7-7-7-7----------5/7-7-7-5/7-7-7-5/7-7-7

retro, aint it?
            
Submit corrections

↑ Back to top | Tablatures and chords for acoustic guitar and electric guitar, ukulele, drums are parodies/interpretations of the original songs. You may use it for private study, scholarship, research or language learning purposes only