» » »

Sex Pistols - Belsen Was A Gas Tabs

Artists:  A B C D E F G H I J K L M N O P Q R S T U V W X Y Z # 

Belsen Was A Gas Tabs

(ver. 1) Click to play this song!
Sex Pistols
 Rating:
4/5 (4 votes)
                Intro/Verse:

e-------------------------------------- -------------------------------------
b-------------------------------------- -------------------------------------
g--6-6-6-6--4-4-4-4--6-6-6-6--7-7-7-7-- ---6-6-6-6--4-4-4-4--6-6--9-9-9-9----
d--6-6-6-6--4-4-4-4--6-6-6-6--7-7-7-7-- ---6-6-6-6--4-4-4-4--6-6--9-9-9-9----
a--4-4-4-4--2-2-2-2--4-4-4-4--5-5-5-5-- ---4-4-4-4--2-2-2-2--4-4--7-7-7-7----
e-------------------------------------- -------------------------------------


Chorus:
                    3x
e--------------------- -----------------------
b--------------------- -----------------------
g---5-5--------------- -----------------------
d---5-5----5--5--5---- ---5-5-5-5--5-5-5-5----
a---3-3----5--5--5---- ---5-5-5-5--5-5-5-5----
e----------3--3--3---- ---3-3-3-3--3-3-3-3----


Song Structure:

1. Intro 2x
2. Verse 2x
3. Chorus 2x
4. Verse 2x
5. Chorus 2x
6. Verse 2x
7. Chorus 2x
8. Verse 2x (palm mute)
9. Chorus 4x

That's the whole song...
            
Submit corrections

↑ Back to top | Tablatures and chords for acoustic guitar and electric guitar, ukulele, drums are parodies/interpretations of the original songs. You may use it for private study, scholarship, research or language learning purposes only