Home » S » Sex Pistols »

Sex Pistols - Anarchy In The U.K. Bass

Artists:  A B C D E F G H I J K L M N O P Q R S T U V W X Y Z # 

Anarchy In The U.K. Bass

(ver. 3) Click to play this song!
Sex Pistols
 Rating:
4/5 (4 votes)
                "(2)
Anarchy In The UK by The Sex Pistols
Bass Tab


This is my first time tabbing, so give me your honest opinion. i don't care if you tell 
i suck, i want to know if i'm improving, thanks.

Also, the version of the song i have is not the one found on the Never Mind The Bollocks 
this version is half a step down to the one on the album.

Intro
|-------------------------------------------------------------------------|
|-------------------------------------------------------------------------|
|--10-10-10-10-10-10-10-10-10>>---8-8-8-8-8-8-8-8-7>>---5>>---------------|
|------------------------------------------------------------8-8-8-8-x8---|


Verse
|-------------------------------------------------------------------------|
|-------------------------------------------------------------------------|
|--8-8-8-8-8-8-8-8-8-8-8-8-----8-8-8-8-8-8-8-8-8-8-8-8--------------------|
|--------------------------8-7-------------------------8-7----------------|

|-------------------------------------------------------------------------|
|-------------------------------------------------------------------------|
|--8-8-8-8-8-8-8-8-8-8-8-8-----8-8-8-8-8-8-8-8-8-8-8-8--------------------|
|--------------------------8-7------------------------8-8-10-8------------|


Chorus
|-------------------------------------------------------------------------|
|-------------------------------------------------------------------------|
|--10-10-10-10-10-10-10-10-10>>---8-8-8-8-8-8-8-8-7>>---5>>---------------|
|-------------------------------------------------------------------------|

|-------------------------------------------------------------------------|
|-------------------------------------------------------------------------|
|------------8-7------------10-10-10-10>>---------------------------------|
|--8-8-8-8x3------8-8-8-8x3-----------------------------------------------|


Verse


Chorus
|-------------------------------------------------------------------------|
|-------------------------------------------------------------------------|
|--10-10-10-10-10-10-10-10-10-10-10-8-8-8-8-8-8-8-8-7>>---5>>-------------|
|-------------------------------------------------------------------------|

|-------------------------------------------------------------------------|
|-------------------------------------------------------------------------|
|------------8-7----------------------------------------------------------|
|--8-8-8-8x3------8-8-8-8x4-10-10-----------------------------------------|


Solo
|-------------------------------------------------------------------------|
|-------------------------------------------------------------------------|
|--5-5-5-5-5-5-5-5-7-7-7-7-7-7-7-6-5-5-5-5-5-5-5-5-7-7-7-7-7-7-7-7-6------|
|-------------------------------------------------------------------------|
|--5-5-5-5-5-5-5-5-7-7-7-7-7-7-7-6-5-5-5-5-5-5-5-5-8-10-10-10-10x8--------|


Verse


Chorus


Bridge
|--------------------------------------------------------------------------|
|--------------------------------------------------------------------------|
|---------------10-9----------------10-9---------------10-9----------------|
|-10-10-10-10x3------10-10-10-10x3------10-10-10-10x3-------10-10-10-10x3-9|


Verse


Chorus x4



>> - let the note ring
x3 or whatever other number - how many times you should play the segment
"            
Submit corrections

↑ Back to top | Tablatures and chords for acoustic guitar and electric guitar, ukulele, drums are parodies/interpretations of the original songs. You may use it for private study, scholarship, research or language learning purposes only