» » »

Seventh Day Slumber - Here With You Tabs

Artists:  A B C D E F G H I J K L M N O P Q R S T U V W X Y Z # 

Here With You Tabs

(ver. 1) Click to play this song!
Seventh Day Slumber
 Rating:
4.3/5 (18 votes)

 Here With You lessons Tabs too difficult? Try these video lessons and learn fast
 
                INTRO
E|--------------------------------------------------------------|
B|--------------------------------------------------------------|
G|--------------------------------------------------------------|
D|------4-----4-4------4-----4-4------4-----4-4-----4-----4-4---|
A|---2-----2--------2-----2--------2-----2-------2-----2--------|
D|--------------------------------------------------------------|



VERSE 1
E|---------------------------------------------------------------------------------------------|
B|---------------------------------------------------------------------------------------------|
G|---------------------------------------------------------------------------------------------|
D|------4-----4-4------4-----4-4------4-----4-4------4-----4-4------4-----4-4------4-----4-4---|
A|---2-----2--------2-----2--------2-----2--------2-----2--------------------------------------|
D|---------------------------------------------------------------2-----2--------2-----2--------|

E|---------------------------------|
B|---------------------------------|
G|---------------------------------|
D|------4-----4-4------4-----4-4---| x4
A|---------------------------------|
D|---2-----2--------2-----2--------|



CHORUS 1
E|--------------------------------------------------------------------------------|
B|---/12-12-12-12-12-12-12-12-11-11-11-11-11-11-11-11\5-5-5-5-5-5-5p4-4-4/7-7-7---|
G|--------------------------------------------------------------------------------|
D|--------------------------------------------------------------------------------|
A|--------------------------------------------------------------------------------|
D|--------------------------------------------------------------------------------|

E|---------------------------------------------------------------------------------|
B|---/12-12-12-12-12-12-12-12-11-11-11-11-11-11-11-11\5-5-5-5-5-5-5p4-4-4--4h5p4---|
G|---------------------------------------------------------------------------------|
D|---------------------------------------------------------------------------------| x2
A|---------------------------------------------------------------------------------|
D|---------------------------------------------------------------------------------|



BETWEEN C1 & V2
E|---11h12p11------------------11h12p11------------------11h12p11---------------------|
B|------------14-12--11h12--------------14-12--11h12/14-----------14-12--11h12--------|
G|-------------------------11--------------------------------------------------11-----|
D|--------------------------------------------------------------------------------13--|
A|------------------------------------------------------------------------------------|
D|------------------------------------------------------------------------------------|

E|-11h12p11-------------------|
B|----------14-12--11h12/14---|
G|----------------------------|
D|----------------------------|
A|----------------------------|
D|----------------------------|



VERSE 2
E|---------------------------------------------------------------------------------------|
B|---------------------------------------------------------------------------------------|
G|------------4-4-----------4-4-----------4-4-----------4-4-----------4-4-----------4-4--|
D|------4-------------4-------------4-------------4-------------4-------------4----------|
A|---2-----2-------2-----2-------2-----2-------2-----2-----------------------------------|
D|-----------------------------------------------------------2----2--------2----2--------|

E|------------------------------|
B|------------------------------|
G|----------4-4-----------4-4---|
D|----4-------------4-----------| x2
A|------------------------------|
D|-2----2--------2-----2--------|



CHORUS 2
E|--------------------------------------------------------------------------------|
B|---/12-12-12-12-12-12-12-12-11-11-11-11-11-11-11-11\5-5-5-5-5-5-5p4-4-4/7-7-7---|
G|--------------------------------------------------------------------------------|
D|--------------------------------------------------------------------------------|
A|--------------------------------------------------------------------------------|
D|--------------------------------------------------------------------------------|

E|---------------------------------------------------------------------------------|
B|---/12-12-12-12-12-12-12-12-11-11-11-11-11-11-11-11\5-5-5-5-5-5-5p4-4-4--4h5p4---|
G|---------------------------------------------------------------------------------|
D|---------------------------------------------------------------------------------| x2
A|---------------------------------------------------------------------------------|
D|---------------------------------------------------------------------------------|



BETWEEN C2 & BRIDGE
E|---11h12p11------------------11h12p11------------------11h12p11---------------------|
B|------------14-12--11h12--------------14-12--11h12/14-----------14-12--11h12--------|
G|-------------------------11--------------------------------------------------11-----|
D|--------------------------------------------------------------------------------13--|
A|------------------------------------------------------------------------------------|
D|------------------------------------------------------------------------------------|

E|-11h12p11-------------------|
B|----------14-12--11h12/14---|
G|----------------------------|
D|----------------------------|
A|----------------------------|
D|----------------------------|



BRIDGE
E|---------------------------------------------------------------------------------|
B|---------------------------------------------------------------------------------|
G|---------------------------------------------------------------------------------|
D|---6p4h6--1-2--2-2--2-2-2/9-9-9-9-9-9\4-4-4--6p4h6--1-2--2-2--2-2-2/9-9-9-9-9-9--|
A|---6p4h6--1-2--2-2--2-2-2/9-9-9-9-9-9\4-4-4--6p4h6--1-2--2-2--2-2-2/9-9-9-9-9-9--|
D|---6p4h6--1-2--2-2--2-2-2/9-9-9-9-9-9\4-4-4--6p4h6--1-2--2-2--2-2-2/9-9-9-9-9-9--|

E|------------------------------------------------------------------------|
B|------------------------------------------------------------------------|
G|----------11-11-11-11-8-------------------------------------------------|
D|---11-11-----------------6p4h6--1-2--2-2--2-2-2/9-9-9-9-9-9-8-8-8-8-8---|
A|-------------------------6p4h6--1-2--2-2--2-2-2/9-9-9-9-9-9-8-8-8-8-8---|
D|-------------------------6p4h6--1-2--2-2--2-2-2/9-9-9-9-9-9-8-8-8-8-8---|

E|----------------------------------------------------------------------------|
B|----------------------------------------------------------------------------|
G|----------------------------------------------------------------------------|
D|---6p4h6--1-2--2-2--2-2-2/9-9---9-8-8---8-10-9-7-6----2-2-2-2-2-2-2-2-2-----|
A|---6p4h6--1-2--2-2--2-2-2/9-9---9-8-8---8-10-9-7-6----2-2-2-2-2-2-2-2-2-----|
D|---6p4h6--1-2--2-2--2-2-2/9-9---9-8-8---8-10-9-7-6----2-2-2-2-2-2-2-2-2-----|



CHORUS 3
E|--------------------------------------------------------------------------------|
B|---/12-12-12-12-12-12-12-12-11-11-11-11-11-11-11-11\5-5-5-5-5-5-5p4-4-4/7-7-7---|
G|--------------------------------------------------------------------------------|
D|--------------------------------------------------------------------------------|
A|--------------------------------------------------------------------------------|
D|--------------------------------------------------------------------------------|

E|---------------------------------------------------------------------------------|
B|---/12-12-12-12-12-12-12-12-11-11-11-11-11-11-11-11\5-5-5-5-5-5-5p4-4-4--4h5p4---|
G|---------------------------------------------------------------------------------|
D|---------------------------------------------------------------------------------|
A|---------------------------------------------------------------------------------|
D|---------------------------------------------------------------------------------|

E|----------------------------------------------------12-12-12-12-12-12-12-12-11-11-11-11-11-11-11-11---|
B|---/12-12-12-12-12-12-12-12-11-11-11-11-11-11-11-11---------------------------------------------------|
G|------------------------------------------------------------------------------------------------------|
D|------------------------------------------------------------------------------------------------------|
A|------------------------------------------------------------------------------------------------------|
D|------------------------------------------------------------------------------------------------------|

E|--------------------------------------------------------------------------------|
B|---12-12-12-12-12-12-12-12-11-11-11-11-11-11-11-11\5-5-5-5-5-5-5p4-4-4--4h5p4---|
G|--------------------------------------------------------------------------------|
D|--------------------------------------------------------------------------------|
A|--------------------------------------------------------------------------------|
D|--------------------------------------------------------------------------------|



END
E|------------------|
B|------------------|
G|------------4-----|
D|---6p4h6--1-2-----|
A|---6p4h6--1-2-----|
D|---6p4h6--1-2-----|


            
Submit corrections


        Here With You lessons Hard to play? Try these video lessons and learn fast Here With You lessons
        
↑ Back to top | Tablatures and chords for acoustic guitar and electric guitar, ukulele, drums are parodies/interpretations of the original songs. You may use it for private study, scholarship, research or language learning purposes only