Home » S » Seu Jorge »

Seu Jorge - Rebel Rebel Acoustic Live Tabs

Artists:  A B C D E F G H I J K L M N O P Q R S T U V W X Y Z # 

Rebel Rebel Acoustic Live Tabs

(ver. 2) Click to play this song!
Seu Jorge
[Section A]
e|----|----------------|----------------| The notes in parentheses are optional
B|----|----5-----5-----|----7-----7-----| embellishments that he plays every now
G|----|----6-----6-----|----8-----8-----| and again.
D|----|4---4-----4-----|6---6-----6-----|
A|(5)-|5-----------(7)-|7---------------|
E|----|--------5-------|--------7-------|

[Section B]
e|----0-----------|---------------|----2-----2-----|----------------|
B|----------------|---5-----5-----|----3-----3-----|0-----------5---|
G|----6-----6-----|---------------|----2-----2-----|1---------------|
D|6---6-----6-----|---4-----4-----|----------------|2-----------6---|
A|0-------0---3-4-|5------5---0-1-|2-------2-----2-|----------------|
E|----------------|---------------|----------------|0---0-2-4-------|

[Section A]
e|----|----------------|----------------| 
B|----|----5-----5-----|----7-----7-----| 
G|----|----6-----6-----|----8-----8-----| 
D|----|4---4-----4-----|6---6-----6-----|
A|(5)-|5-----------(7)-|7---------------|
E|----|--------5-------|--------7-------| x12

[Section B]
e|----0-----------|---------------|----2-----2-----|----------------|
B|----------------|---5-----5-----|----3-----3-----|0-----------5---|
G|----6-----6-----|---------------|----2-----2-----|1---------------|
D|6---6-----6-----|---4-----4-----|----------------|2-----------6---|
A|0-------0---3-4-|5------5---0-1-|2-------2-----2-|----------------|
E|----------------|---------------|----------------|0---0-2-4-------| x1

[Section A]
e|----|----------------|----------------| 
B|----|----5-----5-----|----7-----7-----| 
G|----|----6-----6-----|----8-----8-----| 
D|----|4---4-----4-----|6---6-----6-----|
A|(5)-|5-----------(7)-|7---------------|
E|----|--------5-------|--------7-------| x16

[Section B]
e|----0-----------|---------------|----2-----2-----|----------------|
B|----------------|---5-----5-----|----3-----3-----|0-----------5---|
G|----6-----6-----|---------------|----2-----2-----|1---------------|
D|6---6-----6-----|---4-----4-----|----------------|2-----------6---|
A|0-------0---3-4-|5------5---0-1-|2-------2-----2-|----------------|
E|----------------|---------------|----------------|0---0-2-4-------| x1

[Section A]
e|----|----------------|----------------| 
B|----|----5-----5-----|----7-----7-----| 
G|----|----6-----6-----|----8-----8-----| 
D|----|4---4-----4-----|6---6-----6-----|
A|(5)-|5-----------(7)-|7---------------|
E|----|--------5-------|--------7-------| x12

[To finish, the last four measures sound like this]
e|----|----------------|----------------|----------------|----------------|
B|----|----5-----5-----|----7---7-7-7-7-|----5-----5-----|7-7---7---------|
G|----|----6-----6-----|----8---7-7-7-7-|----6-----6-----|8-8---8---------|
D|----|4---4-----4-----|6---6---6-6-6-6-|4---4-----4-----|6-6---6---------|
A|(5)-|5-----------(7)-|7-----7---------|5---------------|7-7---7---------|
E|----|--------5-------|----------------|--------5---5---|----------------|            
Submit corrections

↑ Back to top | Tablatures and chords for acoustic guitar and electric guitar, ukulele, drums are parodies/interpretations of the original songs. You may use it for private study, scholarship, research or language learning purposes only