» » »

Serj Tankian - Feed Us Tabs

Artists:  A B C D E F G H I J K L M N O P Q R S T U V W X Y Z # 

Feed Us Tabs

(ver. 3) Click to play this song!
Serj Tankian
 Rating:
4/5 (7 votes)

 Feed Us lessons Tabs too difficult? Try these video lessons and learn fast
 
                (Intro)
+------------------------+
|                        |
| Serj Tankian - Feed Us |
|                        |
+------------------------+

This is my first tab so constructive comments are welcome at this adress : 
I didn't find out the first 5 sec of the song. Maybe later I'll try to finish the song.

T u n i n g : Drop D


     v v v v v^v^ v v  v v v v v^v^ v v
E|--------------------------------------|
B|--------------------------------------|
G|*-------------------------------------|
D|*--2-2-2-2-2222-5-5--1-1-1-1-1111-4-4-|
A|---2-2-2-2-2222-5-5--1-1-1-1-1111-4-4-|
D|---2-2-2-2-2222-5-5--1-1-1-1-1111-4-4-|


   v v v v v^v^ v v v v v v v  v  v  v
E|---------------------------------------|
B|---------------------------------------|
G|--------------------------------------*|
D|-2-2-2-2-2222-5-5-7-7-7-7-10-10-10-10-*|
A|-2-2-2-2-2222-5-5-7-7-7-7-10-10-10-10--|
D|-2-2-2-2-2222-5-5-7-7-7-7-10-10-10-10--|


E|----------------------------|
B|----------------------------|
G|*--------------------------*|
D|*--------------------------*|
A|---10/7--9/6--10/7--9--12---|
D|----------------------------|
            
Submit corrections


        Feed Us lessons Hard to play? Try these video lessons and learn fast Feed Us lessons
        
↑ Back to top | Tablatures and chords for acoustic guitar and electric guitar, ukulele, drums are parodies/interpretations of the original songs. You may use it for private study, scholarship, research or language learning purposes only