Home » S » Serge Gainsbourg »

Serge Gainsbourg - Zig Zag Avec Toi Tabs

Artists:  A B C D E F G H I J K L M N O P Q R S T U V W X Y Z # 

Zig Zag Avec Toi Tabs

(ver. 1) Click to play this song!
Serge Gainsbourg
Intro :
           ^  v     ^  v  ^
e |--------0--0-----0--0--0----|
B |--------1--1-----1--1--1----|
G |--------0--0-----0--0--0----|
D |--------2--2-----2--2--2----|
A |--3-----3--3-----3--3--3----|
E |----------------------------| x4


Couplets / Solo :

    C                                 Am
           ^  v     ^  v  ^                  ^  v     ^  v  ^
e |-------0--0-----0--0--0----|----|--------0--0-----0--0--0----|----|
B |-------1--1-----1--1--1----|----|--------1--1-----1--1--1----|----|
G |-------0--0-----0--0--0----|-%--|--------2--2-----2--2--2----|-%--|
D |-------2--2-----2--2--2----|----|--------2--2-----2--2--2----|----|
A |-3-----3--3-----3--3--3----|----|--0-----0--0-----0--0--0----|----|
E |---------------------------|----|----------------------------|----|

  
    F                             G
           ^  v     ^  v  ^             ^  v     ^  v  ^
e |--------1--1-----1--1--1----|--------3--3-----3--3--3----|
B |--------1--1-----1--1--1----|--------0--0-----0--0--0----|
G |--------2--2-----2--2--2----|--------0--0-----0--0--0----|
D |--------3--3-----3--3--3----|--------0--0-----0--0--0----|
A |--------3--3-----3--3--3----|--------2--2-----2--2--2----|
E |--1-----1--1-----1--1--1----|--3-----3--3-----3--3--3----|


    C                             C
           ^  v     ^  v  ^       ^
e |--------0--0-----0--0--0----|--0-----------------------|
B |--------1--1-----1--1--1----|--1-----------------------|
G |--------0--0-----0--0--0----|--0-----------------------|
D |--------2--2-----2--2--2----|--2-----------------------|
A |--3-----3--3-----3--3--3----|--3-----------------------|
E |----------------------------|--------------------------|


 Parfois à la fin du couplet/solo :

     G
     ^  ^  ^  ^  ^  ^  ^  ^
e |--3--3--3--3--3--3--3--3----|
B |--0--0--0--0--0--0--0--0----|
G |--0--0--0--0--0--0--0--0----|
D |--0--0--0--0--0--0--0--0----|
A |--2--2--2--2--2--2--2--2----|
E |--3--3--3--3--3--3--3--3----|



            
Submit corrections

↑ Back to top | Tablatures and chords for acoustic guitar and electric guitar, ukulele, drums are parodies/interpretations of the original songs. You may use it for private study, scholarship, research or language learning purposes only