» » »

Serge Gainsbourg - Brigade Des Stups Bass

Artists:  A B C D E F G H I J K L M N O P Q R S T U V W X Y Z # 

Brigade Des Stups Bass

(ver. 1) Click to play this song!
Serge Gainsbourg
 Rating:
4.3/5 (13 votes)

 Brigade Des Stups lessons Tabs too difficult? Try these video lessons and learn fast
 
                0:08  Couplet   
G|--------------------------------------------------------------------|
D|------------8-8--8-8-8------8-8----8--------------------------------|
A|-----5-6--6------------6--6------6--------8-8--8-8-8------8-8-----8-|     
E|---8---------------------------------6--6------------6--6-----6-6---|  

G|---------------------------------7-7/9-----------------------------------|
D|---10-10--10-10-10---7/8--8-8/7------------------------------------7/8---|
A|-8-----------------8---------------------8-8--8-8-8------5-----8-------6-|     
E|---------------------------------------6------------6--6---6-6---6-------|  

0:25  Couplet   
G|---------------------------------------------------------------|
D|---8-8--8-8-8------8-8-8---8-----------------------------------|
A|-6------------6--6-------6--------8-8--8-8-8------8-8----8-8-8-|     
E|-----------------------------6--6------------6--6------6-------|  

G|---------10--------10-----------------------------------|
D|---10---------10----------------------------------------|
A|-8----8-----8----8----8------8-8--8-8-8------8-8------6-|     
E|------------------------6--6------------6--6------6-6---|  

0:40  Couplet   
G|--------------------------------------------------------------|
D|---8-8--8-8-8------8-8----------------------------------------|
A|-6------------6--6------6-8-8------8-8--8-8-8------8-8------8-|     
E|------------------------------6--6------------6--6------6-6---|  

G|------------------------------------------------------------------|
D|---10-10--10-10-10------10-10-------------------------------------|
A|-8-----------------8--8--------------8-8--8----8-8--8----8-8--8---|     
E|------------------------------8-6--6--------6---------6---------6-|  

0:55  Pont   
G|-----------8----------8------------------------------------|
D|------8----------8-----------------------------------------|
A|-6--6---6----6--6--6----6------8-8--8-8-8------8-8-8-----8-|     
E|--------------------------6--6------------6--6-------6-6---|  

G|--------------------------------------------------|
D|---10---------------------------------------------|
A|-8-------------------8-8--8-8-8------8-8-8------6-|     
E|------5--6--7\6-6--6------------6--6--------6-6---|  

1:07  Couplet   
G|-----------------------------------------------------------|
D|---8-8--8-8-8------8-8-8---8-------------------------------|
A|-6------------6--6-------6--------8-8--8-8-8------8------8-|     
E|-----------------------------6--6------------6--6----6-6---|  

G|--------------------------------------------------------------------|
D|---10-10--10-10-10------10-10-10------------------------8-6---6-8---|
A|-8-----------------8--8----------8-8------8-8--8-8-8--------8-----6-|     
E|-------------------------------------6--6------------6--------------|  

1:25  Couplet   
G|---------------------------------------------------------|
D|---8-8--8-8-8------8-8-8---8-------------------8---8-----|
A|-6------------6--6-------6--------8-8--8-8-8-----------8-|     
E|-----------------------------6--6------------6---6---6---|  

G|---------------------------------------------------------------|
D|---10-10--10-10-10------10-10-10---10--------------------------|
A|-8-----------------8--8----------8---------8-8----8-8----8-8---|     
E|--------------------------------------6--6-----6------6------6-|  

1:39  Outro   
G|---------------------------------------------------------------|
D|---8-8--8-8-8------8---8---8-----------------------------------|
A|-6------------6--6---6---6--------8-8--8-8-8------8-8--8-8-8-8-|     
E|-----------------------------6--6------------6--6--------------|  

G|--------------------------------7-7/9--------------|
D|---10-10--10-10-10---7/8--8-8/7--------------------|
A|-8-----------------8-------------------------------|     
E|--------------------------------------6--6--6--6-6-|  

            
Submit corrections


        Brigade Des Stups lessons Hard to play? Try these video lessons and learn fast Brigade Des Stups lessons
        
↑ Back to top | Tablatures and chords for acoustic guitar and electric guitar, ukulele, drums are parodies/interpretations of the original songs. You may use it for private study, scholarship, research or language learning purposes only