» » »

Senses Fail - Nj Fall Into The Atlantic Bass

Artists:  A B C D E F G H I J K L M N O P Q R S T U V W X Y Z # 

Nj Fall Into The Atlantic Bass

(ver. 1) Click to play this song!
Senses Fail
 Rating:
4/5 (4 votes)

 Nj Fall Into The Atlantic lessons Tabs too difficult? Try these video lessons and learn fast
 
                First tab. Don't be mad if its wrong
But yeah here it goes.

Drop D Tuning

NO BASS IN INTRO AT FIRST

INTRO
G------------------------------------------------------------------------|
D------------------------------------------------------------------------|X2
A------------------------------------------------------------------------|
D-4444444444444444--0000000000000000--7777777777777777--6666666666666666-|

VERSE
G-----------------------------------------------------------------------|
D-----------------------------------------------------------------------|
A------0-----544------0-----477------0----544------0----477400----------|
D--4~----0~-------4~----0~-------4~----0~------4~----0~-----------------|

G------------------------------------------------------------------------|
D------------------------------------------------------------------------|
A------------------------------------------------------------------------|
D--444444444444444--0000000000000000--4444444444443333--0000000000000000-|

Chorus
G------------------------------------------------------------------------|
D------------------------------------------------------------------------|X2
A------------------------------------------------------------------------|
D-4444444444444444--0000000000000000--7777777777777777--6666666666666666-|


VERSE
G-----------------------------------------------------------------------|
D-----------------------------------------------------------------------|
A------0-----544--------0----477400-------------------------------------|
D--4~----0----------4~----0~--------------------------------------------|

G------------------------------------------------------------------------|
D------------------------------------------------------------------------|
A------------------------------------------------------------------------|
D--444444444444444--0000000000000000--4444444444443333--0000000000000000-|


Chorus
G------------------------------------------------------------------------|
D------------------------------------------------------------------------|X2
A------------------------------------------------------------------------|
D-4444444444444444--0000000000000000--7777777777777777--6666666666666666-|

Bridge
G---------------------------------------------------------2------------------|
A-------------------------------------2------------------------------------2-|
D-----------4/5-4-2-5-----------5-4-2---------------4/5-2------------5-4-2---|
D--0~----4~------------0~----4~-----------0~----4~-----------0~----4~--------|

G------------------------------------2-------------------|
A----------------2-------------------------------------2-|
D----------5-4-2---------------4/5-2-------------5-4-2---|
D--0~----4~-----------0~----4~-----------0~----4~--------|

G------------------------------------------------------------------------|
D------------------------------------------------------------------------|X4
A------------------------------------------------------------------------|
D-4444444444444444--0000000000000000--7777777777777777--6666666666666666-|


Chorus
G------------------------------------------------------------------------|
D------------------------------------------------------------------------|X2
A------------------------------------------------------------------------|
D-4444444444444444--0000000000000000--7777777777777777--6666666666666666-|

Outro
G----
D----
A----
D-0~~
            
Submit corrections


        Nj Fall Into The Atlantic lessons Hard to play? Try these video lessons and learn fast Nj Fall Into The Atlantic lessons
        
↑ Back to top | Tablatures and chords for acoustic guitar and electric guitar, ukulele, drums are parodies/interpretations of the original songs. You may use it for private study, scholarship, research or language learning purposes only