» » »

Senses Fail - Closurerebirth Tabs

Artists:  A B C D E F G H I J K L M N O P Q R S T U V W X Y Z # 

Closurerebirth Tabs

(ver. 1) Click to play this song!
Senses Fail
 Rating:
2.8/5 (27 votes)

 Closurerebirth  lessons Tabs too difficult? Try these video lessons and learn fast
 
                D|-----------------------------------------------------------------------------|
A|-----------------------------------------------------------------------------|
F|12-12-12-12-12-12-12-12-10-10-10-10-10-10-10-10-8-8-8-8-8-8-8-8-10-10-10-10--|
C|X--X--X--X--X--X--X--X--X--X--X--X--X--X--X--X--X-X-X-X-X-X-X-X-X--X--X--X---|
G|10-10-10-10-10-10-10=10-8--8--8--8--8--8--8--8--7-7-7-7-7-7-7-7-8--8--8--8---|
C|-----------------------------------------------------------------------------|

D|-----------------------------------------------------------------------------|
A|-----------------------------------------------------------------------------|
F|10-10-10-10-12-12-12-12-12-12-12-12-10-10-10-10-10-10-10-10-8-8-8-8-8-8-8-8--|
C|X--X--X--X--X--X--X--X--X--X--X--X--X--X--X--X--X--X--X--X--X-X-X-X-X-X-X-X--|
G|8--8--8--8--10-10-10-10-10-10-10-10-8--8--8--8--8--8--8--8--7-7-7-7-7-7-7-7--|
C|-----------------------------------------------------------------------------|

Repeat the last 2 tab pieces again

D|---------------------------------------------------------------|
A|---------------------------------------------------------------|
F|----------------5+---------------------------------------------|
C|0------------------------3--3--0------3--3--0------3--3--3--0--|
G|0------------------------3--3--0------3--3--0------3--3--3--0--|
C|0------------------------3--3--0------3--3--0------3--3--3--0--|

D|------------------------|
A|------------------------|
F|------------------------|
C|3--0--5-----------------|
G|3--0--5-----------------|
C|3--0--5----pick-scr*pe--|


D|-----------------------------------------------------------------------------|
A|-----------------------------------------------------------------------------|
F|12-12-12-12-12-12-12-12-10-10-10-10-10-10-10-10-8-8-8-8-8-8-8-8-10-10-10-10--|
C|X--X--X--X--X--X--X--X--X--X--X--X--X--X--X--X--X-X-X-X-X-X-X-X-X--X--X--X---|
G|10-10-10-10-10-10-10=10-8--8--8--8--8--8--8--8--7-7-7-7-7-7-7-7-8--8--8--8---|
C|-----------------------------------------------------------------------------|

D|-----------------------------------------------------------------------------|
A|-----------------------------------------------------------------------------|
F|10-10-10-10-12-12-12-12-12-12-12-12-10-10-10-10-10-10-10-10-8-8-8-8-8-8-8-8--|
C|X--X--X--X--X--X--X--X--X--X--X--X--X--X--X--X--X--X--X--X--X-X-X-X-X-X-X-X--|
G|8--8--8--8--10-10-10-10-10-10-10-10-8--8--8--8--8--8--8--8--7-7-7-7-7-7-7-7--|
C|-----------------------------------------------------------------------------|

Repeat the last 2 tab pieces again

D|------------------------------------------------------------------------------------|
A|-----------6--3--5--6--------------------------6--3--5--6---------------------------|
F|------------------------------------------------------------------------------------|
C|0------------------------------0--------0-------------------------------------------|
G|0------------------------------0--------0-------------------------------------------|
C|0------------------------------0--------0-------------------------------------------|

D|6--6--6--6--6--6--6--6--6--6--6--6--6--6--6--6--10-10-10-10-10-10-10-10-10--|
A|4--4--4--4--4--4--4--4--4--4--4--4--4--4--4--4--8--8--8--8--8--8--8--8--8---|
F|5--5--5--5--5--5--5--5--5--5--5--5--5--5--5--5--9--9--9--9--9--9--9--9--9---|
C|3--3--3--3--3--3--3--3--3--3--3--3--3--3--3--3--7--7--7--7--7--7--7--7--7---|
G|3--3--3--3--3--3--3--3--3--3--3--3--3--3--3--3--7--7--7--7--7--7--7--7--7---|
C|3--3--3--3--3--3--3--3--3--3--3--3--3--3--3--3--7--7--7--7--7--7--7--7--7---|

D|10-10-10-10-10-10------------------------------------------------------------------|
A|8--8--8--8--8--8-------------------------------------------------------------------|
F|9--9--9--9--9--9-------------------------------------------------------------------|
C|7--7--7--7--7--7-------------------------------------------------------------------|
G|7--7--7--7--7--7-------------------------------------------------------------------|
C|7--7--7--7--7--7-------------------------------------------------------------------|

Repeat the last 2 tab pieces 3 more times, and make sure to watch the video for the 
strum pattern on the 4th time through.

D|---------------------------------------------------------------------------|
A|---------------------------------------------------------------------------|
D|---------------------------------------------------------------------------|
C|1--0--0--0--0--0--0--0--0--0--0--0--0--0--0--0--0--0--0--0--0--0--0--0--0--|
G|1--0--0--0--0--0--0--0--0--0--0--0--0--0--0--0--0--0--0--0--0--0--0--0--0--|
C|1--0--0--0--0--0--0--0--0--0--0--0--0--0--0--0--0--0--0--0--0--0--0--0--0--|
        .  .  .  .  .  .  .  .  .  .  .  .  .  .  .  .  .  .  .  .  .  .  .
D|----------------------------------------------------------------------------|
A|----------------------------------------------------------------------------|
D|----------------------------------------------------------------------------|
C|0--0--0--0--0--0--0--0--0---------0--1--0--0--0--0--0--0--0--0--0--0--0--0--|
G|0--0--0--0--0--0--0--0--0---------0--1--0--0--0--0--0--0--0--0--0--0--0--0--|
C|0--0--0--0--0--0--0--0--0--11b-4b-0--1--0--0--0--0--0--0--0--0--0--0--0--0--|
  .  .  .  .  .  .  .  .  .                  .  .  .  .  .  .  .  .  .  .  .
D|---------------------------------------------------------------------------|
A|---------------------------------------------------------------------------|
D|---------------------------------------------------------------------------|
C|0--0--0--0--0--0--0--0--0--0--0--0--0--0--0--0--0--0--0--0--0--1--0--0--0--|
G|0--0--0--0--0--0--0--0--0--0--0--0--0--0--0--0--0--0--0--0--0--1--0--0--0--|
C|0--0--0--0--0--0--0--0--0--0--0--0--0--0--0--0--0--0--0--0--0--1--0--0--0--|
  .  .  .  .  .  .  .  .  .  .  .  .  .  .  .  .  .  .  .  .  .     .  .  .
D|---------------------------------------------------------------------------|
A|---------------------------------------------------------------------------|
D|---------------------------------------------------------------------------|
C|0--0--0--1--0--0--0--0--0--0--1--0--0--0--0--0--0--1--3--6--1--0--0--0--0--|
G|0--0--0--1--0--0--0--0--0--0--1--0--0--0--0--0--0--1--3--6--1--0--0--0--0--|
C|0--0--0--1--0--0--0--0--0--0--1--0--0--0--0--0--0--1--3--6--1--0--0--0--0--|
  .  .  .     .  .  .  .  .  .     .  .  .  .  .  .                 .  .  .
D|---------------------------------------------------------|
A|---------------------------------------------------------|
D|---------------------------------------------------------|
C|0--0--0--1--0--0--0--0--0--0--1--0--0--0--0--0--0--1--0--|
G|0--0--0--1--0--0--0--0--0--0--1--0--0--0--0--0--0--1--0--|
C|0--0--0--1--0--0--0--0--0--0--1--0--0--0--0--0--0--1--0--|
  .  .  .     .  .  .  .  .  .     .  .  .  .  .  .
D|6--6--6--6--6--6--6--6--6--6--6--6--6--6--6--6--10-10-10-10-10-10-10-10-10--|
A|4--4--4--4--4--4--4--4--4--4--4--4--4--4--4--4--8--8--8--8--8--8--8--8--8---|
F|5--5--5--5--5--5--5--5--5--5--5--5--5--5--5--5--9--9--9--9--9--9--9--9--9---|
C|3--3--3--3--3--3--3--3--3--3--3--3--3--3--3--3--7--7--7--7--7--7--7--7--7---|
G|3--3--3--3--3--3--3--3--3--3--3--3--3--3--3--3--7--7--7--7--7--7--7--7--7---|
C|3--3--3--3--3--3--3--3--3--3--3--3--3--3--3--3--7--7--7--7--7--7--7--7--7---|

D|10-10-10-10-10-10------------------------------------------------------------------|
A|8--8--8--8--8--8-------------------------------------------------------------------|
F|9--9--9--9--9--9-------------------------------------------------------------------|
C|7--7--7--7--7--7-------------------------------------------------------------------|
G|7--7--7--7--7--7-------------------------------------------------------------------|
C|7--7--7--7--7--7-------------------------------------------------------------------|            
Submit corrections


        Closurerebirth  lessons Hard to play? Try these video lessons and learn fast Closurerebirth  lessons
        
↑ Back to top | Tablatures and chords for acoustic guitar and electric guitar, ukulele, drums are parodies/interpretations of the original songs. You may use it for private study, scholarship, research or language learning purposes only